Bon Jovi - Wanted Dead Or Alive Chords & Tabs

 

Wanted Dead Or Alive Chords & Tabs

Bon Jovi Chords & Tabs

Version: 3 Type: Tab 0 ratings
1 star 2 stars 3 stars 4 stars 5 stars
comments

Wanted Dead Or Alive Tab

This is a very beatiful and easy peice.

Enjoy...

Any comments or questions can be send to "eraser49@hotmail.com"
[ Tab from: http://www.guitartabs.cc/tabs/b/bon_jovi/wanted_dead_or_alive_tab_ver_3.html ]
E------------13-------------------12-------------------10--------------------8------------------
B-------------------------------------------------------------------------------------------------
G-------14-------14---------12--------12--------10---------10---------9--------9-------------
D---0-------------------0--------------------0----------------------0---------------------------
A------------------------------------------------------------------------------------------------
E------------------------------------------------------------------------------------------------

E---------------5-----------------------3-------------3/1---------------------------------------
B------------------------------------------------------------------------------------------------
G----------5--------5------------4----------4--------4/2---------------------------------------
D-----0--------------------0-------------------------------------------------------------------
A------------------------------------------------------------------------------------------------
E------------------------------------------------------------------------------------------------
Comments