Bon Jovi - Wanted Dead Or Alive Chords & Tabs

 

Wanted Dead Or Alive Chords & Tabs

Bon Jovi Chords & Tabs

Version: 2 Type: Tab 1 rating
1 star 2 stars 3 stars 4 stars 5 stars
comments

Wanted Dead Or Alive Tab

   
##################################################################################
# This file is the author's own work and represents their interpretation of the  #
# song. You may only use this file for private study, scholarship, or research.  #
##################################################################################

Song: Wanted Dead or Alive
Band: Bon Jovi
By: Dan

This is played on a 12 string but it is still playable
on a normal guitar

Chords
         E a d g b E
D        x x 0 2 3 2
Dsus4    x x 0 2 3 3
Dsus2    x x 0 2 3 0
Cadd9    x 3 2 0 3 3
G        3 2 0 0 3 3
F        1 3 3 2 1 1

Intro part 1:

e-0----------0---0-------0----0-
b---3---3----------3---3---3--3-
g-----2--------------2--------2-
d----------0------------------0-
a-------------------------------
E-------------------------------

Intro part 2:

e------13---------12---------10---------8-------5---
b---------------------------------------------------
g---14----14---12----12---10----10----9---9---5---5-
d-0----------0----------0-----------0-------0-------
a---------------------------------------------------
E---------------------------------------------------

e-----5---3-
b---------x-
g---5-----4-   this is x2
d-0---------       
a-----------
E-----------
 
Intro part 3:   

e-------------0-0-0-0-0-0-----------------------0-
b-------------3-3-3-3-3-3-----------------------3-
g-------------2-2-2-2-2-2- x3 then,-------------2-
d-----0-3b5---0-0-0-0-0-0---------------0-3b5---0-
a-0h3-------------------------------0h3-----------
E-------------------------------------------------

Verse:
 
   
Chorus:

     
Verse 2:

     

Chorus 2: As chorus 1


Repeat Intro part 2


Solo: (over verse chords) PH= pinch harmonics
[ Tab from: http://www.guitartabs.cc/tabs/b/bon_jovi/wanted_dead_or_alive_tab_ver_2.html ]
E----------------------------------------------
B----------------------------------------------
G--------5-7---7-5--7v-------------------------
D-12\--------------------------5b7-5b-5b-5b-r3-
A--------3/5---5-3-/5v---3--5------------------
E-10\------------------------------------------
                                                     
E-------------13h15---15b-15b----15b-15b-15b----
B-------13h15-----------------------------------
G-12h14---------------------------------------7-
D---------------------------------------------7-
A-------------------------------------------- 5-
E-----------------------------------------------
            
E-----------------------------------------------------------
B-----------------------------------------------------------
G---------PH---------PH=======|-----------------PH=======|--
D---------3----------3--5-5--3-----0-3-0--------3-5--5-3vv--
A-x--3-5-----5--3-5-----------------------3-0-5-------------
E-----------------------------------------------------------
      palm mute
                               |---------------|  
E--------------------------------------------------------------
B------------13-------13------13-------------------------------
G-10--12b14-----12b14---12b14-----14b12-10--5-5--7-7--10-10--7-
D-------------------------------------------5-5--7-7--10-10--7-
A-------------------------------------------3-3--5-5--8--8---5-
E--------------------------------------------------------------


Chorus 3: As chorus 1 

Verse 3:

  Chorus 4: As other choruses, repeat to outro.

Outro:

e------13---------12---------10---------8-------5---
b---------------------------------------------------
g---14----14---12----12---10----10----9---9---5---5-
d-0----------0----------0-----------0-------0-------
a---------------------------------------------------
E---------------------------------------------------

e-----5---3-
b---------x-
g---5-----4-   do this x2 but last time finish on D instead of -3-
d-0---------          -x-    
a-----------       -4-
E-----------
  

Comments