Bon Jovi - Undivided Chords & Tabs

 

Undivided Chords & Tabs

Bon Jovi Chords & Tabs

Version: 2 Type: Tab 0 ratings
1 star 2 stars 3 stars 4 stars 5 stars
comments

Undivided Tab

   
Undivided
---------
from the album "Bounce" (2002)
by Jon Bon Jovi, Richie Sambora & Billy Falcon
transcribed by Santiago Rodriguez    &   Antti Iiskola
               santiago_srod@hotmail.com  iceman_ai@hotmail.com
              

The sixth string is tuned down to D

This song it's dedicated to USA for the 11/9 Attacks for being united
so and this song I dedicate to Venezuela my country that is Divided
for a Fuck president Chavez...so please stay united...undivided please

Santiago Rodriguez
Maracay, Venezuela

I don't have a comment on the politics, but the song would be great if the lyrics were about something
else... Anyway, I fixed a few things, transcribed others and edited it all up. So here it is, enjoy.

Ice


Verse:
------

   D5 E5 F5
e|--------------------------------|
B|--------------------------------|
G|--------------------------------|
D|--------------------------------|
A|-0-0-2-3-0-0-3-2--0-2-3-0-0-2-3-|
D|-0-0-2-3-0-0-3-2--0-2-3-0-0-2-3-|


Pre-chorus:
-----------

    D5                         Bb5
e|------------------------------------------------------|
B|------------------------------------------------------|
G|--7-7--7-7--7-7--7-7--7--7----------------------------|
D|--7-7--7-7--7-7--7-7--7--7---8-8--8-8--8-8--8-8--8--8-|
A|--5-5--5-5--5-5--5-5--5--5---8-8--8-8--8-8--8-8--8--8-|
D|-----------------------------8-8--8-8--8-8--8-8--8--8-|



Chorus:
-------

    D5              Bb5               F5               C5
e|----------------|----------------|-----------------|------------------|
B|----------------|----------------|-----------------|------------------|
G|--7-7-7-7-7-7-7-|----------------|--10101010101010-|------------------|
D|--7-7-7-7-7-7-7-|--8-8-8-8-8-8-8-|--10101010101010-|-10-10-10-10-10-10|
A|--5-5-5-5-5-5-5-|--8-8-8-8-8-8-8-|--8-8-8-8-8-8-8--|-10-10-10-10-10-10|
D|----------------|--8-8-8-8-8-8-8-|-----------------|-10-10-10-10-10-10|

Fig.1:
-----
Repeat throughout the chorus.

    D     C      D  
e|-----------------------|
B|-----------------------|
G|--7-7\--5--5/--7--7----|
D|-----------------------|
A|--5-5\--3--3/--5--5----|
D|-----------------------|


Pre-chorus 2:
-------------

    D5
e|-----------------------------|
B|-----------------------------|
G|--7-7--7-7--7-7--7-7--7--7---|
D|--7-7--7-7--7-7--7-7--7--7---|
A|--5-5--5-5--5-5--5-5--5--5---|
D|-----------------------------|




Solo:
-----


e|---------------------------------------------------------|
B|------------------6--8-8b11r8-p6-------------------------|
G|--7-7-5-7-7-5-7~------------------7--5-------------------|
D|-----------------------------------------5-5b7r5-----5~--|
A|---------------------------------------------------8-----|
E|---------------------------------------------------------|
[ Tab from: http://www.guitartabs.cc/tabs/b/bon_jovi/undivided_tab_ver_2.html ]
e|--10--10--10--10--10-10-10-10-10--10--10--10--10-10-10-10-10--10--|
B|--13b-13b-13b-13b-13-13-13-13-13b-13b-13b-13b-13-13-13-13-13b-13b-|
G|------------------------------------------------------------------|
D|------------------------------------------------------------------|
A|------------------------------------------------------------------|
E|-/----------------------------------------------------------------|

e|-------13------------------------------------------------|
B|---------------------------------------------------------|
G|--12b------r12--10------10--12~---10h12p10-9-------------|
D|--------------------12-----------------------12-10-12~---|
A|---------------------------------------------------------|
E|---------------------------------------------------------|



Pre-chorus 3:
-------------
   
    D5                         Bb5
e|-----------------------------------------------------------------------|
B|-----------------------------------------------------------------------|
G|--7-7--7-7--7-7--7-7--7--7---------------------------------------------|
D|--7-7--7-7--7-7--7-7--7--7---8-8--8-8--8-8--8-8--8--8--8-8-8--8-8--8--8|
A|--5-5--5-5--5-5--5-5--5--5---8-8--8-8--8-8--8-8--8--8--8-8-8--8-8--8--8|
D|-----------------------------8-8--8-8--8-8--8-8--8--8--8-8-8--8-8--8--8|


Outro:
------
Guitar 1 - distortion:

e|--------------|
B|--------------|
G|--------------|
D|--0______-----|
A|--0______-----|
D|--0______-----|

Guitar 2 - acoustic:

Strum these chords:

   Dm  Bbsus2  F   C
e|-1---1-------1---0----|
B|-3---1-------1---1----|
G|-2---3-------2---0----|
D|-0---3-------3---2----|
A|-----1-------3---3----|
E|-------------1--------|

End on Dm.





Undivided
---------
(Jon Bon Jovi / Richie Sambora / Billy Falcon)

						[Verse]
That was my brother lost in the rubble
That was my sister lost in the crush
That was our mothers, those were our children
That was our fathers, that was each one of us

A million prayers to God above			[Pre-chorus]
A million tears make an ocean of

One for love					[Chorus w/ Fig.1]
One for truth
One for me, one for you

I found spirit, they couldn't ruin it		[Verse]
I found courage in the smoke and dust
I found faith in the songs you silenced
Deep down it's ringing out in each of us

Yeah... yeah, yeah, yeah, yeah			[Pre-chorus 2]

One for love					[Chorus w/ Fig.1]
One for truth
One for me, one for you
Where we once were divided, now we stand united
We stand as one... undivided.

						[Solo w/ Verse]

How many hands? How many hearts?		[Verse]
How many dreams been torn apart?

Enough, enough... 				[Pre-chorus 3]
The time has come to rise back up as	

One for love					[Chorus w/ Fig.1]
One for truth
One for me, one for you
Where we once were divided now we stand united
We stand as one... undivided.

Undivided.					[Chorus w/ Fig.1]
Undivided.
	
One for love					[Outro]
One for truth
One for me, one for you
Where we once were divided, now we stand united
We stand as one... undivided.
Comments