Bon Jovi - Undivided Chords & Tabs

 

Undivided Chords & Tabs

Bon Jovi Chords & Tabs

Version: 2 Type: Chords 0 ratings
1 star 2 stars 3 stars 4 stars 5 stars
comments

Undivided Chords

   
bon jovi
undivided
tabbed by brad yobbos_rule@hotmail.com

intro/verse
E|-----------------------------------|
B|-----------------------------------|
G|-----------------------------------|
D|-----------------------------------|
A|-0-0-0-0--0-0-0-0---0-0-0--0-0-0-0-|
D|-0-0-3-2--0-0-3-2---0-3-2--0-0-3-2-|


pre chorus
   Dm              A#
E|-----------------------------------|
B|-----------------------------------|
G|-----------------3-3-3-3-3-3-3-3---|
D|-0-0-0-0-0-0-0-0-3-3-3-3-3-3-3-3---|
A|-0-0-0-0-0-0-0-0-1-1-1-1-1-1-1-1---|
D|-0-0-0-0-0-0-0-0-------------------|


chorus
   Dm      A#      F       C
E|-------------------------0-0-0-0---|
B|-3-3-3-3-----------------1-1-1-1---|
G|-2-2-2-2-9-9-9-9-5-5-5-5-0-0-0-0---|   
D|-0-0-0-0-7-7-7-7-3-3-3-3-2-2-2-2---|
A|-0-0-0-0-7-7-7-7-3-3-3-3-3-3-3-3---|
D|-0-0-0-0-7-7-7-7-3-3-3-3-----------|

play verse

play pre chorus

play chorus
[ Tab from: http://www.guitartabs.cc/tabs/b/bon_jovi/undivided_crd_ver_2.html ]
play solo (same chords as chorus)

play verse

play pre chorus

play chorus x2

play chorus no words

ends with the chorus without distortion


these are the words
verse 1
that was my brother lost in the rubble
that was my sisterlost in the crush
that was our mothers those were our children
that was our fathers that was each of us

pre chorus
a million prayers to god above
a million tears make an ocean of

chorus
one for love
one for truth
one for me
one for you

verse 2
i found spirit they couldnt ruin it
i found courage in the smoke and dust
i found faith in the songs you silenced
deep down its ringing out in each of us

pre chorus

chorus
one for love
one for truth
one for me
one for you
where we once were divided
now we stand united
we stand as one
undivided

play solo

verse 3
how many hands how many hearts
how many dreams been torn apart
enough enough
the time has come to rise back up

chorus x2

chorus softly to end

thats it this is the best song on the album
Comments