Bon Jovi - Unbreakable Chords & Tabs

 

Unbreakable Chords & Tabs

Bon Jovi Chords & Tabs

Version: 1 Type: Tab

Unbreakable Tab

 ---------------------------------------------------------------------------
 Unbrekable (Bon Jovi)
 Have a Nice Day - Bonus tracks
 (intro)
 ---------------------------------------------------------------------------|
 ---------------------------------------------------------------------------|
 ---------------------------------------------------------------------------|
 -245--246--245--4-5-7-9----------------------------------------------------|
 -245--246--245--4-5-7-9----------------------------------------------------|
 -023--024--023--2-3-5-7----------------------------------------------------|

 (verse)
[ Tab from: http://www.guitartabs.cc/tabs/b/bon_jovi/unbreakable_tab.html ]
 ---------------------------------------------------------------------------|
 ---------------------------------------------------------------------------|
 ---------------------------------------------------------------------------|
 -245--246--245--4-5-7-9----------------------------------------------------|
 -245--246--245--4-5-7-9----------------------------------------------------|
 -023--024--023--2-3-5-7----------------------------------------------------|

 Acompāņando el tono de la cancion.

-----------------------------------------------------------------------------

 El coro y resto lo estoy sacando poco a poco, esto es lo mas cercano a la version del 
Cualquier sugerencia k_coba14@hotmail.com