Bon Jovi - Ugly Riff Chords & Tabs

 

Ugly Riff Chords & Tabs

Bon Jovi Chords & Tabs

Version: 1 Type: Chords 0 ratings
1 star 2 stars 3 stars 4 stars 5 stars
comments

Ugly Riff Chords

   
#----------------------------------PLEASE NOTE---------------------------------#
#This file is the author's own work and represents their interpretation of the #
#song. You may only use this file for private study, scholarship, or research. #
#------------------------------------------------------------------------------#
#

Date: Wed, 15 Oct 1997 02:20:43 PDT
From: Antti Iiskola 
To: guitar@olga.net
Subject: Ugly - Jon Bon Jovi

UGLY - Jon Bon Jovi
>From "Destination Anywhere" 1997 
Transcribed by Antti Iiskola
               iceman_ai@hotmail.com
               antti.iiskola@mbnet.fi
[ Tab from: http://www.guitartabs.cc/tabs/b/bon_jovi/ugly_riff_crd.html ]
  Riff 1:
   .          .           .          .           .
e |---------|----------------------------------------------|
B |-------7-|-10-------7----------7--10-------7----------7-|
G |--6h-9---|-----6h-9----9--6h-9--------6h-9----9--6h-9---|
D |---------|----------------------------------------------|
A |---------|----------------------------------------------|
E |---------|----------------------------------------------|

    .           .          .           .
e |----------------------------------------------|
B |-10-------7----------7------------------------|
G |-----6h-9----9--6h-9--------------------------|
D |-----------------------W7---------------------|     W = whammy bar 
A |----------------------------------------------|     . = quarter notes
E |----------------------------------------------|




Verse chords:
F#m E Dmaj7 Dmaj7 x3  F#m E A A  (Or is it Dmaj7 1st time then A ?)

Chorus:
D E E F#m Dmaj7 E F#m
D E E F#m Dmaj7 Dmaj7 E E

Chords:
F#m   244222
E     022100
Dmaj7 xx0222 or 557675 (I think the guitar plays also xx0202
                        in kind of a "funky" way with xx0222)
A     x02220 
D     xx0232  
Comments