Bon Jovi - This Ain't A Love Song Chords & Tabs

 

This Ain't A Love Song Chords & Tabs

Bon Jovi Chords & Tabs

Version: 3 Type: Tab 0 ratings
1 star 2 stars 3 stars 4 stars 5 stars
comments

This Ain't A Love Song Tab

INTRO:

 ---------------------------------------------
 -9-9--7/9---9--7---------------------------5-
 ------------------10/12-10/12---10--7--------
 ---------------------------------------------
 ---------------------------------------------
 ---------------------------------------------
[ Tab from: http://www.guitartabs.cc/tabs/b/bon_jovi/this_aint_a_love_song_tab_ver_3.html ]
 
 ----------------------------------------
 --3/5-3/5---3-0-------------------------
 ----------------3---1/3-----------------
 ------------------------1/3-------------
 ----------------------------1/3--3-7----
 ----------------------------------------

Thats all folks!!! I know that bonjovi will come back to Paraguay
Comments