Bon Jovi - This Ain't A Love Song Chords & Tabs

 

This Ain't A Love Song Chords & Tabs

Bon Jovi Chords & Tabs

Version: 1 Type: Tab 0 ratings
1 star 2 stars 3 stars 4 stars 5 stars
comments

This Ain't A Love Song Tab

   
##################################################################################
# This file is the author's own work and represents their interpretation of the  #
# song. You may only use this file for private study, scholarship, or research.  #
##################################################################################

This AinĀ“t A Love Song
Tabbed by Ignacio De Leon
ideleon@ucu.edu.uy


Riff 1
e |-4-4-4-2-2-2h4/6-0-0-0--------------------------|
B |-----------------------1-1-0-----------------4--|
G |-------------------------------4b-1------1-2----|
D |-2-2-2-0-0-0-0-0-0-0-0-0-0-0--------4---1-------|
A |------------------------------------------------|
E |------------------------------------------------|

e |-14b-12h14----|
B |-----------14-|

But only fools are 'know-it-alls' and I played that fool for you

G |-4b-1---|
D |------4-|

D |-------2---------|
A |-0-2-4---4-2-0---|
E |---------------2-|

PreChorus 1:

A   C#m      B
e|---------9-----------------9-----------------------------------------
B|------10---10-----------10---10-----16-12-14-16-14-16-12-14-16-14-16-
G|----9---------9-------9---------9------------------------------------
D|---------------------------------------------------------------------
A|0----------------7---------------------------------------------------
E|---------------------------------------------------------------------


e|---------9-----------------9-------------12---10---9--7--5-4-2-0--
B|------10---10-----------10---10-----------------------------------
G|----9---------9-------9---------9---------------------------------
D|------------------------------------------------------------------
A|-0----------------7-----------------------------------------------
E|------------------------------------------------------------------

Chorus:
  E                                     B                   C#m             A
e|----------------------------------------------------------------------------|
B|----------------------------------------------------------------------------|
G|----------------------------------------------------------------------------|
D|-9---------11-----------9---------7------------------------6-8-6-4----------|
A|-7---------7------------7---------7---9--------------------4-4-4-4--------7-|
E|--------------------------------------7-----------------------------------5-|
  D |-------2---------|
A |-0-2-4---4-2-0---|
E |---------------2-|
[ Tab from: http://www.guitartabs.cc/tabs/b/bon_jovi/this_aint_a_love_song_tab.html ]
D |--------------------12b-12-10--|
A |-9p8-7--9/6-5-9/4--------------|
E |-------------------------------|
 
D |-------2---------|
A |-0-2-4---4-2-0---|
E |---------------2-|

PreChorus 2:

e|---------9-----------------9-----------------------------------------
B|------10---10-----------10---10-----16-12-14-16-14-16-12-14-16-14-16-
G|----9---------9-------9---------9------------------------------------
D|---------------------------------------------------------------------
A|0----------------7---------------------------------------------------
E|---------------------------------------------------------------------

e|---------9-----------------9-------------12---10---9--7--5-4-2-0--
B|------10---10-----------10---10-----------------------------------
G|----9---------9-------9---------9---------------------------------
D|------------------------------------------------------------------
A|-0----------------7-----------------------------------------------
E|------------------------------------------------------------------

Chorus 2:

  E                                     B                   C#m             A
e|----------------------------------------------------------------------------|
B|----------------------------------------------------------------------------|
G|----------------------------------------------------------------------------|
D|-9---------11-----------9---------7------------------------6-8-6-4----------|
A|-7---------7------------7---------7---9--------------------4-4-4-4--------7-|
E|--------------------------------------7-----------------------------------5-|
  
Solo:
e|----------------------------------------------------|
B|----------------------------------------------------|
G|-9b-9b-7h9----7----9-7----9-7----9-7----9b-9b--7h9--|
D|----------9----9------9------9------9-------------9-|
A|----------------------------------------------------|
E|----------------------------------------------------|

e|----------------10-12b--12-10-12--14b--12b-------|
B|-12b-12---10h12----------------------------14b---|
G|-------------------------------------------------|
D|-------------------------------------------------|
A|-------------------------------------------------|
E|-------------------------------------------------|

e|-12-10----12-10----12-10----12-10------12b|
B|-------12-------12-------12-------12------|
G|------------------------------------------|
D|------------------------------------------|
A|------------------------------------------|
E|------------------------------------------|

Then 
Prechorus 1
Chorus 1
Riff 1

Comments