Bon Jovi - These Days Chords & Tabs

 

These Days Chords & Tabs

Bon Jovi Chords & Tabs

Version: 1 Type: Tab 2 ratings
1 star 2 stars 3 stars 4 stars 5 stars
comments

These Days Tab

THESE DAYS


[ Tab from: http://www.guitartabs.cc/tabs/b/bon_jovi/these_days_tab.html ]
|------------------------|---------------------|-----------------------------|then play
|------------------------|---------------------|-----------------------------|Em & let 
|------------------------|---------------------|-----------------------------|ring out
|----------4/5-------2---|------------------>--|--5\7----5--5----4--4----2-2-|
|---3--------------------|--5-----\---------2--|-----------------------------|
|------------------------|---------------------|-----------------------------|



|---------------|--------------|--------------|---7----------------------|
|--------3------|--------5-----|--------7-----|-------7------------------|
|------5-----5--|------7----7--|------9----9--|-------------9--9\-7--7\-5|
|----5---------5|----7--------7|----9--------9|-------------9--9\-7--7\-5|
|--3------------|--5-----------|--7-----------|-------------7--7\-5--5\-3|
|---------------|--------------|--------------|--------------------------|


Comments