Bon Jovi - Silent Night Solo Chords & Tabs

 

Silent Night Solo Chords & Tabs

Bon Jovi Chords & Tabs

Version: 1 Type: Tab 0 ratings
1 star 2 stars 3 stars 4 stars 5 stars
comments

Silent Night Solo Tab

   
#----------------------------------PLEASE NOTE---------------------------------#
#This file is the author's own work and represents their interpretation of the #
#song. You may only use this file for private study, scholarship, or research. #
#------------------------------------------------------------------------------#

                                SILENT NIGHT SOLO

Words and Music by: Jon Bon Jovi
Album: 7800° Fahrenheit (1985)
Transcribed by: Peter Pletz


                                     D/A
     W.B.  W.B.  W.B.  W.B.  W.B.                          
e :---------------------------------|---------------------------------|
B :---------------------------------|---------------------------------|
G :-9(6)9\6(4)6\4(2)4\2(0)2-/4(6)4--|---------------------------------|
D :---------------------------------|-4~~~----------------------------|
A :---------------------------------|---------------------------------|
E :---------------------------------|---------------------------------|



    A
      W.B.   W.B.    W.B.    W.B.      W.B.  W.B.     W.B.    W.B.
e :-12(9)12p9(7)9-------------------h12(9)12p9(7)9--------------------|
B :---------------h12(10)12p10(7)10----------------h12(10)12p10(7)10--|
G :-------------------------------------------------------------------|
D :-------------------------------------------------------------------|
A :-------------------------------------------------------------------|
E :-------------------------------------------------------------------|




    D/A                              
        |------n.h.------|
e :---------------------------------|
B :------------7-----7~~~-----------|
G :-11---7---7-------7~~~-----------|
D :--------7---------7~~~-----------|
A :---------------------------------|
E :---------------------------------|




    A

e :-17-14-------17-14----------14-17-14----------14-17-14-------17-14-------17-14----------14h17/19b-|
B :-------17-14-------17-14-17----------17-14-17----------17-14-------17-14-------17-14-17-----------|
G :--------------------------------------------------------------------------------------------------|
D :--------------------------------------------------------------------------------------------------|
A :--------------------------------------------------------------------------------------------------|
E :--------------------------------------------------------------------------------------------------|




   D/A
[ Tab from: http://www.guitartabs.cc/tabs/b/bon_jovi/silent_night_solo_tab.html ]
e :-b(21)--19b(21)--17--------------|
B :--------------------19~~~--------|
G :---------------------------------|
D :---------------------------------|
A :---------------------------------|
E :---------------------------------|




    A
   |------------------------------echo effect-------------------------------|
e :-14----------------14-17-------------------------------14-17-------------|
B :-------14-17-------------14-17-------------------14-17-------14-17-------|
G :----16-------14-16-------------14-16-------14-16-------------------14-16-|
D :-------------------------------------14-16-------------------------------|
A :-------------------------------------------------------------------------|
E :-------------------------------------------------------------------------|




   D/A                                     A
      W.B.      W.B.     W.B.    W.B.
e :---------------------------------------|---------------------------------|
B :-14(12)14------------------------------|---------------------------------|
G :----------h16(14)16\14(11)14\11(9)11\7\|\6-------------------------------|
D :---------------------------------------|---------------------------------|
A :---------------------------------------|---------------------------------|
E :---------------------------------------|---------------------------------|
  :   W.B.      W.B.    W.B.    W.B.      |                                 |                                 |
e :---------------------------------------|---------------------------------|
B :---------------------------------------|---------------------------------|
G :--9(6)9--------------------------------|---------------------------------|
D :----------h11(9)11-\-9(7)9-\-7(4)7-\-4\|\2-------------------------------|
A :---------------------------------------|---------------------------------|
E :---------------------------------------|---------------------------------|


Legend:

|-8/10-|  = slide up
|-10\8-|  = slide down
|--5h6--| = hammer on
|--6p5--| = pull off
|-5b(6)-| = bend string
   W.B.
|-9(7)9-| = bend down with whammy bar
   n.h.
|---5---| = natural harmonics
|-5~~~-|  = vibrato



















---TABS, LYRICS AND CHORDS Detail Data-----------------------------------
Automatically imported by TLC. Check out TLC at www.tabslyricschords.com!

---TLC DATA - Do Not Modify Between Lines--------------------------------
    Title: 
   Author: 
Copyright: 
    Album: 
 Category: 
    Tempo: 
   Tabber: 
      Key: 
     Memo: 
  LMargin: 3
  RMargin: 0
   Tuning: 
---TLC DATA - Do Not Modify Between Lines-------------------------------
Comments