Bon Jovi - Say It Isn't So Chords & Tabs

 

Say It Isn't So Chords & Tabs

Bon Jovi Chords & Tabs

Version: 1 Type: Tab 0 ratings
1 star 2 stars 3 stars 4 stars 5 stars
comments

Say It Isn't So Tab

   
##################################################################################
# This file is the author's own work and represents their interpretation of the  #
# song. You may only use this file for private study, scholarship, or research.  #
##################################################################################


Bon Jovi - Say it isn't so
Intro

Guitar 2 G5D5C5

Guitar 1 
|-----------------------------------------------------------------------------------| 
|-------3------3-------------------------3-----3------------------------------------|
|-------0------0-------------------------0-----0------------------5-5---5-----------|
|----------------------4/5/4--------------------------4/5/4-------5-5---5-----------|          
|-----------------------------------------------------------------3-3---3-----------|       
|-----------------------------------------------------------------------------------|

Guitar 2G5D             Cadd9

Guitar 1 
|------------------------------------------------------------------|
|8-------8-------8---------7---7---7---7---7---7---7---------------|
|7-------7-------7---------7---7---7---7---7---7---7-------5-------|
|----------------------------------------------------------5-------|
|----------------------------------------------------------3-------|
|------------------------------------------------------------------|
[ Tab from: http://www.guitartabs.cc/tabs/b/bon_jovi/say_it_isnt_so_tab.html ]
Riff1: (spilles før efter bridge)
|------------------------------------------------------------|
|------------------------------------------------------------|
|--------------0-------0-------0-----------------------------|
|----------4---------4-------4-------4------0----------------|
|-------5----------------------------------------------------|
|------------------------------------------------------------|

Verse:            |Bridge:            
 
G5- X X 5 7 X X   |Am- X 0 2 2 1 X    
                         
D-  X X X 7 7 X  |C-  X 3 2 0 1 X    
                            
C-  X X 5 5 5 X   |Riff1              

|Chorus:

|G5-  X X 5 7 X X   |C5-   X 3 5 X X X

|D/F- X X 4 7 X X   |Am-   5 7 X X X X

|E5-  X X 2 4 X X   |Am/G- 3 7 X X X X

|C5-  X 3 5 X X X   |Cm-   X 3 5 5 4 3

Verse 1                      
Bridge               
Verse 2
Bridge
Chorus


Verse 2 
Bridge

Chorus

En slags solo:

Em - Cadd9 - Em - Cadd9

|------------------------------------------------------------|
|------------------------------------------------------------|
|--------------0-------0-------0-----------------------------|
|----------4---------4-------4-------4-----------------------|
|-------5----------------------------------------------------|
|------------------------------------------------------------|

|------------------------------------------------------------|
|------------------------------------------------------------|
|--------------0-------0-------0-----------------------------|
|----------4---------4-------4-------4------0----------------|
|-------5----------------------------------------------------|
|------------------------------------------------------------|

Chorus
Comments