Bon Jovi - Say It Isn't So Chords & Tabs

 

Say It Isn't So Chords & Tabs

Bon Jovi Chords & Tabs

Version: 2 Type: Bass Tab 0 ratings
1 star 2 stars 3 stars 4 stars 5 stars
comments

Say It Isn't So Bass Tab

   
			Say It Isn't So  (bass)

Transcribed by Dan Corns

I had the privilege of seeing Bon Jovi live this year at the last ever
Wembley Stadium gig.  It was amazing!!!!!

Any problems, let me know at dancorns@genie.co.uk

Intro

G|-----------------|
D|-----------------|
A|-----5-5--3-3--3-|
E|3-3--------------|   X2

Verse
G|---------------------|
D|---------------------|
A|-----5-5-------3-3-3-|
E|3-3-------0-0--------|

G|-----------------|
D|-----------------|
A|-----5-5--3-3--3-|
E|3-3--------------|

G|---------------------|
D|---------------------|
A|-----5-5-------3-3-3-|
E|3-3-------0-0--------|

G|-------------------|
D|-------------------|
A|-------------------|
E|5-5--5-5-\8-8--8-8-|

[ Tab from: http://www.guitartabs.cc/tabs/b/bon_jovi/say_it_isnt_so_btab_ver_2.html ]
            G|-----------------|
            D|-----------------|
            A|-----5-5--3-3--3-|
            E|3-3--------------|

Second Verse
(Bass as first verse)

Chorus
G|----------------|----------------|----------------|
D|----------------|----------------|----------------|
A|----------------|----------------|----------------|
E|3-3-3-3-3-3-3-3-|2-2-2-2-2-2-2-2-|0-0-0-0-0-0-0-0-|

G|----------------|----------------|----------------|
D|--------------5-|----------------|----------------|
A|3-3-3-3-3-3-5---|0-0-0-0-0-0-0-0-|----------------|
E|----------------|----------------|3-3-3-3-3-3-3-3-|

G|----------------|
D|----------------|
A|3-3-3-3-3-3-3-3-|
E|----------------|

Back to verse (only half length this time)
verse III

Chorus (bass as previous)

Chorus

Keyboard Solo

G|--------------|
D|--------------|
A|--------------|
E|0--0----0-0-0-| X4


Chorus

Comments