Bon Jovi - Runaway Chords & Tabs

 

Runaway Chords & Tabs

Bon Jovi Chords & Tabs

Version: 2 Type: Bass Tab

Runaway Bass Tab

   
Title: Runaway
Artist: Bon Jovi
Album: One wild night
Tabber: Steph
Email: cyberbassist@hotmail.com



G|----------------------------------------------------|
D|----------------------------------------------------|
A|----------------------------------------------------|
E|-05--03--05--03--05--03--05~--03~--30--01--13-35----|


Verse1

G|-----------------------------------------------------------------------|
D|-----------------------------------------------------------------------|
A|-----------------------------------------------------------------------|
E|-55555555-55555555-33333333-33333333--00000000-0000-3333--55555555-----|


G|-----------------------------------------------------------------------|
D|-----------------------------------------------------------------------|
A|------------------------------------------------55555555-55555555------|
E|-55555555-00000000--33333333--55555555-55555555------------------------|


G|-----------------------------------------------------------------------|
D|-----------------------------------------------------------------------|
A|-33333333--------------------------------------------------------------|
E|----------33333--------------------------------------------------------|


Chorus
G|-----------------------------------------------------------------------|
D|-----------------------------------------------------------------------|
A|-------------------------------------33333333--------------------------|
E|-55555555-55555555-33333333-33333333----------0000-3333----------------|


G|-----------------------------------------------------------------------|
D|-----------------------------------------------------------------------|
A|-----------------------------------------------------------------------|
E|-55555555-55555555-33333333--0--0--------------------------------------|

Verse2


G|------------------------------------------------------------------------|
D|------------------------------------------------------------------------|
A|--------------------------------------------------------------------3-33|
E|55555555-55555555-33333333-33333333-00000000-1111-3333--55555555-55-----|

[ Tab from: http://www.guitartabs.cc/tabs/b/bon_jovi/runaway_btab_ver_2.html ]
G|------------------------------------------------------------------------|
D|------------------------------------------------------------------------|
A|------------------------------------------------------------------------|
E|55555555-55555555-33333333-33333333-00000000-1111-3333-55555555-55555555|


G|-----------------------------------------------------------------------|
D|-----------------------------------------------------------------------|
A|-----------------------------------55555555-55555555-33333333----------|
E|00000000-33333333-55555555-55555555---------------------------33333333-|

Chorus2:

G|-----------------------------------------------------------------------|
D|-----------------------------------------------------------------------|
A|-------------------------------------33333333--------------------------|
E|-55555555-55555555-33333333-33333333----------0000-3333----------------|


G|-------------------------------|---------------------------------------|
D|-------------------------------|---------------------------------------|
A|-------------------------------|---------------------------------------|
E|-55555555-55555555-33333333--0-|-5---5---5---5---5-----34--------------|

Solo: X2

G|-----------------------------------------------------------------------|
D|-----------------------------------------------------------------------|
A|-------------------3333333-55555555-------------------33333333---------|
E|-55555555-55555555------------------55555555-55555555---------33333333-|


Verse3:

G|-----------------------------------------------------------------------|
D|-----------------------------------------------------------------------|
A|-----------------------------------55555555-55555555-33333333----------|
E|00000000-33333333-55555555-55555555---------------------------33333333-|

Last chorus ending

G|-----------------------------------------------------------------------|
D|-----------------------------------------------------------------------|
A|-------------------------------------33333333--------------------------|
E|-55555555-55555555-33333333-33333333----------0000-3333----------------|


Punch

G|-------------|---------|
D|-------------|*-------*|
A|-------------|*-------*|
E|--5-5-3-53-5-|---0---5-|