Bon Jovi - Runaway Chords & Tabs

 

Runaway Chords & Tabs

Bon Jovi Chords & Tabs

Version: 1 Type: Bass Tab 0 ratings
1 star 2 stars 3 stars 4 stars 5 stars
comments

Runaway Bass Tab

   
Title: Runaway
Artist: Bon Jovi
Album: Bon Jovi

Tabbed by Andi Kanzler (andik@ej-brain.de)

Standard 4-String Tuning (E A D G)


Intro:

Only Keyboard in the first line
                                                                    x2
G|----------------|----------------|----------------|----------------|
D|----------------|----------------|----------------|----------------|
A|----------------|----------------|----------------|----------------|
E|--------------0-|5---------------|--------------0-|3---------------|



1. Verse:

G|----------------|----------------|----------------|----------------|
D|----------------|----------------|----------------|----------------|
A|----------------|----------------|----------------|----------------|
E|5-5-------------|--------------0-|3---------------|--------------3-|


G|----------------|----------------|----------------|----------------|
D|----------------|----------------|----------------|----------------|
A|----------------|----------------|----------------|----------------|
E|0-------------0-|1-------------1-|3-------------3-|5---------------|



G|----------------|----------------|----------------|----------------|
D|----------------|----------------|----------------|----------------|
A|----------------|----------------|----------------|----------------|
E|5-5-5-5-5-5-5-5-|5-5-5-5-5-5-5-5-|3-3-3-3-3-3-3-3-|3-3-3-3-3-3-3-3-|


G|----------------|----------------|----------------|----------------|
D|----------------|----------------|----------------|----------------|
A|----------------|----------------|----------------|----------------|
E|0-0-0-0-0-0-0-0-|1-1-1-1-3-3-3-3-|5-5-5-5-5-5-5-5-|5-5-5-5-5-5-5-5-|



G|----------------|----------------|----------------|----------------|
D|----------------|----------------|----------------|----------------|
A|----------------|----------------|----------------|----------------|
E|0-0-0-0-0-0-0-0-|3-3-3-3-3-3-3-3-|5-5-5-5-5-5-5-5-|5-5-5-5-5-5-5-5-|

G|----------------|----------------|----------------|----------------|
D|----------------|----------------|----------------|----------------|
A|5-5-5-5-5-5-5-5-|5-5-5-5-5-5-5-5-|3-3-3-3-3-3-3-3-|----------------|
E|----------------|----------------|----------------|3-3-3-3-3-3-3-3-|



1. chorus:


G|----------------|----------------|----------------|----------------|
D|----------------|----------------|----------------|----------------|
A|----------------|----------------|----------------|----------------|
E|5-5-5-5-5-5-5-5-|5-5-5-5-5-5-5-5-|3-3-3-3-3-3-3-3-|3-3-3-3-3-3-3-3-|


G|----------------|----------------|----------------|----------------|
D|----------------|----------------|----------------|----------------|
A|3-3-3-3-3-3-3-3-|----------------|----------------|----------------|
E|----------------|0-0-0-0-3-3-3-3-|5-5-5-5-5-5-5-5-|5-5-5-5-5-5-5-5-|



G|----------------|----------------|
D|----------------|----------------|
A|----------------|----------------|
E|3-3-3-3-3-3-3-3-|0---0-----------|


2. Verse 

G|----------------|----------------|----------------|----------------|
D|----------------|----------------|----------------|----------------|
A|----------------|----------------|----------------|----------------|
E|5-5-5-5-5-5-5-5-|5-5-5-5-5-5-5-5-|3-3-3-3-3-3-3-3-|3-3-3-3-3-3-3-3-|
[ Tab from: http://www.guitartabs.cc/tabs/b/bon_jovi/runaway_btab.html ]
                                                                    x2
G|----------------|----------------|----------------|----------------|
D|----------------|----------------|----------------|----------------|
A|----------------|----------------|----------------|----------------|
E|0-0-0-0-0-0-0-0-|1-1-1-1-3-3-3-3-|5-5-5-5-5-5-5-5-|5-5-5-5-5-5-5-5-|



G|----------------|----------------|----------------|----------------|
D|----------------|----------------|----------------|----------------|
A|----------------|----------------|----------------|----------------|
E|0-0-0-0-0-0-0-0-|3-3-3-3-3-3-3-3-|5-5-5-5-5-5-5-5-|5-5-5-5-5-5-5-5-|

G|----------------|----------------|----------------|----------------|
D|----------------|----------------|----------------|----------------|
A|5-5-5-5-5-5-5-5-|5-5-5-5-5-5-5-5-|3-3-3-3-3-3-3-3-|----------------|
E|----------------|----------------|----------------|3-3-3-3-3-3-3-3-|



2. Chorus = 1. Chorus except the last line:


G|----------------|----------------|----------------|----------------|
D|----------------|----------------|----------------|----------------|
A|----------------|----------------|----------------|----------------|
E|3-3-3-3-3-3-3-3-|0---------------|----------------|----------------|


G|----------------|----------------|----------------|
D|----------------|----------------|----------------|
A|----------------|----------------|----------------|
E|----------------|------------5---|5---5---5---5-5-|

Solo:


G|----------------|----------------|----------------|----------------|
D|----------------|----------------|----------------|----------------|
A|----------------|----------------|3-3-3-3-3-3-3-3-|5-5-5-5-5-5-5-5-|
E|5-5-5-5-5-5-5-5-|5-5-5-5-5-5-5-5-|----------------|----------------|

                                                                    x2
G|----------------|----------------|----------------|----------------|
D|----------------|----------------|----------------|----------------|
A|----------------|----------------|3-3-3-3-3-3-3-3-|----------------|
E|5-5-5-5-5-5-5-5-|5-5-5-5-5-5-5-5-|----------------|3-3-3-3-3-3-3-3-|



3. Verse: 

G|----------------|----------------|----------------|----------------|
D|----------------|----------------|----------------|----------------|
A|----------------|----------------|----------------|----------------|
E|0-0-0-0-0-0-0-0-|3-3-3-3-3-3-3-3-|5-5-5-5-5-5-5-5-|5-5-5-5-5-5-5-5-|

G|----------------|----------------|----------------|----------------|
D|----------------|----------------|----------------|----------------|
A|5-5-5-5-5-5-5-5-|5-5-5-5-5-5-5-5-|3-3-3-3-3-3-3-3-|----------------|
E|----------------|----------------|----------------|3-3-3-3-3-3-3-3-|


3. Chorus  

G|----------------|----------------|----------------|----------------|
D|----------------|----------------|----------------|----------------|
A|----------------|----------------|----------------|----------------|
E|5-5-5-5-5-5-5-5-|5-5-5-5-5-5-5-5-|3-3-3-3-3-3-3-3-|3-3-3-3-3-3-3-3-|

                                                    x4 and fade out...
G|----------------|----------------|----------------|----------------|
D|----------------|----------------|----------------|----------------|
A|3-3-3-3-3-3-3-3-|----------------|----------------|----------------|
E|----------------|0-0-0-0-3-3-3-3-|5-5-5-5-5-5-5-5-|5-5-5-5-5-5-5-5-|
Comments