Bon Jovi - Right Side Of Wrong Chords & Tabs

 

Right Side Of Wrong Chords & Tabs

Bon Jovi Chords & Tabs

Version: 1 Type: Tab 0 ratings
1 star 2 stars 3 stars 4 stars 5 stars
comments

Right Side Of Wrong Tab

   
Tabbed by Chimera

Great song, with a nice little solo, but I noticed that nobody had put a tab of this on
the net, so I figured it out, and tabbed out what I play. Enjoy...

     G#                                  C#
E|--------------------------------------------|
B|---13-13----14-------13-14-16-14-13---------|
G|---------13----13-------------------15-13*--|
D|------------------13------------------------|
A|--------------------------------------------|
E|--------------------------------------------|

     G#                                C#
E|------------------------------16-11/13*-----|
B|---13-13----14-------13-14-16---------------|
G|---------13----13---------------------------|
D|------------------13------------------------|
A|--------------------------------------------|
E|--------------------------------------------|
[ Tab from: http://www.guitartabs.cc/tabs/b/bon_jovi/right_side_of_wrong_tab.html ]
     F                                                             Bb
E|---------------------------------------------------------------------|
B|--------------------13-----------------------------10---13-10-13/15*-|
G|---14p12p10/14*--14----14-12/10----10/12------10-----10--------------|
D|--------------------------------12-------10-----10-------------------|
A|--------------------------------------------12-----------------------|
E|---------------------------------------------------------------------|

                                                    F
E|-------13-17-13/15----13-13-13-13-13-13-13-13-15/17*----------------|
B|--------------------15----------------------------------13-----------|
G|-----14--17-------------------------------------------14--14-12/10---|
D|---15-------------------------------------------------------------12-|
A|---------------------------------------------------------------------|
E|---------------------------------------------------------------------|

                                             Bb
E|------------------------------------------------|
B|--------10-10-10-10-10-10-10-10/8---------------|
G|---10-12-------------------------10--10/12------|
D|-----------------------------------12-----12----|
A|------------------------------------------------|
E|------------------------------------------------|

     Dm       C      F    G
E|---13-12h13p12--12h13*----------------------------|
B|--------------13--------12h13-15-13-12------------|
G|--------------------------------------12----------|
D|----------------------------------------12/10/9*--|
A|--------------------------------------------------|
E|--------------------------------------------------|
Comments