Bon Jovi - Real Life Chords & Tabs

 

Real Life Chords & Tabs

Bon Jovi Chords & Tabs

Version: 1 Type: Tab 0 ratings
1 star 2 stars 3 stars 4 stars 5 stars
comments

Real Life Tab

   
##################################################################################
# This file is the author's own work and represents their interpretation of the  #
# song. You may only use this file for private study, scholarship, or research.  #
##################################################################################

Bon Jovi – Real Life

Alright, well the recording I’ve got of this sounds to be tuned between E and Eb, which just makes things difficult, but it does work.  The first chord is a D, so tune your guitar’s D string  down to the D on that first chord of the recording.

Intro:
-----------------2------2-------------2-----2-------||
-----------------3------3-------------3-----3-------||
-----------------2------2-------------2-----2-------||
-----------------0------0-------------0-----0-------||
----------------------------------------------------||
----------------------------------------------------||

      A                           E                      F#m                        D
------------------------------------------------------------------------------------------||
------------------------------------------------------------------------------------------||
----2---/--4---/---6---/--4-------------------- 2--/---4--/-- 6-- /---4-------------------||
--------------------------------------2----4b---------------------------------------------||
----0------2---/---4---/--2---------------------0----- 2--/-- 4--/---2--------------------||
----------------------------------0-------------------------------------------------------||

Verse: |:  A  |  E  |  F#m  |  D 


 A                         E 
---------------------------0----------------------------------------0------------||
---------------------------0----------------------------------------0------------||
-----------------------2---------------------------------------------------------||
---------------------2-----------------------------------------2-----------------||
-------------------0-----------------------------------------2-------------------||
-----------------------------------------------------------0---------------------||


F#/G                                       D
[ Tab from: http://www.guitartabs.cc/tabs/b/bon_jovi/real_life_tab.html ]
--------------------3-------------------------------------------2----||
--------------------3-----------------------------------------3------||
------------------------------------------------------------2--------||
-----------------0---------------------------------------0-----------||
---------------0-----------------------------------------------------||
-------------2-------------------------------------------------------||


A                          E 
---------------------------0----------------------------------------0------------||
---------------------------0----------------------------------------0------------||
-----------------------2---------------------------------------------------------||
---------------------2-----------------------------------------2-----------------||
-------------------0-----------------------------------------2-------------------||
-----------------------------------------------------------0---------------------||


F#/G                                                D

--------------------3-------------------------------------------2----||
--------------------3-----------------------------------------3------||
------------------------------------------------------------2--------||
-----------------0---------------------------------------0-----------||
---------------0-----------------------------------------------------||
-------------2-------------------------------------------------------||


|  D  |  D  | - On the link between the chorus and the verse here, it sounds like Richie is using a 
                    whammy bar or pedal over the chord, but it sounds like he’s playing a ‘D’ chord.


------5----5-----5-----5-----5-----5-----5-----5-----4----4----4----4----4----4----4----4-----------------||
------3----3-----3-----3-----3-----3-----3-----3-----3----3----3----3----3----3----3----3-----------------||
----------------------------------------------------------------------------------------------------------||
----------------------------------------------------------------------------------------------------------||
----------------------------------------------------------------------------------------------------------||
----------------------------------------------------------------------------------------------------------||
       



------3----3----3----3----3----3----3----3-----2--- 2----2----2----2----2----2----2---------
------3----3----3----3----3----3----3----3-----3----3----3----3----3----3----3----3--------
---------------------------------------------------------------------------------------------------
----------------------------------------------------------------------------------------------------
----------------------------------------------------------------------------------------------------
----------------------------------------------------------------------------------------------------

Comments