Bon Jovi - One Wild Night Chords & Tabs

 

One Wild Night Chords & Tabs

Bon Jovi Chords & Tabs

Version: 3 Type: Tab 0 ratings
1 star 2 stars 3 stars 4 stars 5 stars
comments

One Wild Night Tab

   
##################################################################################
# This file is the author's own work and represents their interpretation of the  #
# song. You may only use this file for private study, scholarship, or research.  #
##################################################################################

BON JOVI __ ONE WILD NIGHT


 INTRO\CHORUS

    C5                           Ab5

|---------------------------------|----------------------------|
|---------------------------------|----------------------------| 
|---------------------------------|----------------------------|
|----5------5---------------------|----------------------------|
|----3------3------------------6--|----6------X---6----6-------|
|--------------------3--6------4--|----4------X---4----4-------|
 
      Bb5                          C5                                             (Eb5)                          

|---------------------------------|----------------------------|----------------------------------------|
|---------------------------------|----------------------------|----------------------------------------|
|---------------------------------|----------------------------|----------------------------------------|
|----3------3---------------------|----------------------------|--5---5----------1----1-------1---------|
|----1------1--------------1---3--|---3-----1----------1-------|--3---3-----1--3-----------3-------3----|
|----------------------3----------|-------------3--3-------3---|-------------------------------------3--|

   Bb5                         C5

|----------------------------|----------------------------|
|----------------------------|----------------------------|
|----------------------------|----------------------------|
|---3-----3------------------|----------------------------|
|---1-----1-----------1---3--|---3-----1-----------1------|
|-----------------3----------|--------------3---3------3--|



[ Tab from: http://www.guitartabs.cc/tabs/b/bon_jovi/one_wild_night_tab_ver_3.html ]
|-----------------------|---------------------|---------------------|------------------------|
|-----------------------|---------------------|---------------------|------------------------|
|-----------------------|---------------------|---------------------|------------------------|
|-----------------------|------------1--------|---------------------|------------------------|
|----3----3--------1--3-|----3----3------3--1-|---3--3---------1--3-|----3---1----------1----|
|---------------3-------|---------------------|-------------3-------|-------------3--3-----3-|


.....and then play



|--------------------------------|----------------------------------|----------------------------------|
|--------------------------------|----------------------------------|----------------------------------|
|--------------------------------|----------------------------------|----------------------------------|
|--------------------------------|--------------------1-------------|----------------------------------|
|-----3------3----------1---3----|------3-------1----------3-----1--|------3-----3--------------1----3-|
|--------------------3-----------|----------------------------------|----------------------3-----------|

|---------------------------|-----------------------------|
|---------------------------|-----------------------------|
|---------------------------|-----------------------------|
|----------------1----------|-----------------------------|
|----3------1---------3---1-|--3\-------------------------|
|---------------------------|-----------------------------|



Solo (one of the very few Bon Jovi solo's which are a peice of piss to play)

|---------------------------------------------------------------------------------------------|
|--4\13----------11\13---------13\11-------8\13-------13\16----13\16---13\16--13\16---13\11---|
|---------------------------------------------------------------------------------------------|
|---------------------------------------------------------------------------------------------|
|---------------------------------------------------------------------------------------------|
|---------------------------------------------------------------------------------------------|

|---------------------------------------------------------------------------------------------|
|-8\13----------------------------------------------------------------------------------------|
|---------------10\12----10-----7\8----7-------3\5-----3--------------------------------------|
|-------------------------------------------------------------3\5------3----------------------|
|---------------------------------------------------------------------------------------------|
|---------------------------------------------------------------------------------------------|


Comments