Bon Jovi - Never Say Goodbye Chords & Tabs

 

Never Say Goodbye Chords & Tabs

Bon Jovi Chords & Tabs

Version: 3 Type: Tab 0 ratings
1 star 2 stars 3 stars 4 stars 5 stars
comments

Never Say Goodbye Tab

   
Any comments or questions can be send to "eraser49@hotmail.com"

b = bend
14(b) x2 = 1 downstroke but bend up the string two times
                  (just listen to the song and you get it)
 = Flasholetti (an overture)

[ Tab from: http://www.guitartabs.cc/tabs/b/bon_jovi/never_say_goodbye_tab_ver_3.html ]
e|-----------------------------------------------------------------------|
B|-------------------3---2------------------5(b)7--5---14(b)15-x2--------|
G|-----------2---4-----------4(b)6---2-----------------------------14---|
D|-------2---------------------------------------------------------------|
A|---4-------------------------------------------------------------------|
E|-----------------------------------------------------------------------|
                                                                Tri~    Tri~       Tri~
e|--------------------------------------------------------5-7-5---7--------|
B|-----------------------------------------------5-7-5---------------------|
G|----------------2-----------------4----6-7-6-----------------------------|
D|-------3---5-------------5---7-------------------------------------------|
A|---3-----------------5---------------------------------------------------|
E|-------------------------------------------------------------------------|
                                                                                              
e|---10--9--7-----------12(b)14-12---21(b)23-x2--17-------------------------|
B|---------------10---------------------------------------------------------|
G|--------------------------------------------------------------------------|
D|--------------------------------------------------------------------------|
A|--------------------------------------------------------------------------|
E|--------------------------------------------------------------------------|
          Tri~           Tri~             Tri~             Tri~
e|--13-15-13---------------15-17-15------------------------------------------|
B|--------------13-15-13----------------15-17-15----17(b)19~-----------------|
G|---------------------------------------------------------------------------|
D|---------------------------------------------------------------------------|
A|---------------------------------------------------------------------------|
E|---------------------------------------------------------------------------|
Comments