Bon Jovi - Never Say Goodbye Chords & Tabs

 

Never Say Goodbye Chords & Tabs

Bon Jovi Chords & Tabs

Version: 2 Type: Tab 0 ratings
1 star 2 stars 3 stars 4 stars 5 stars
comments

Never Say Goodbye Tab

   
##################################################################################
# This file is the author's own work and represents their interpretation of the  #
# song. You may only use this file for private study, scholarship, or research.  #
##################################################################################

Author/Artist: Bon Jovi
Title: Never Say Goodbye
Album: Slippery When Wet
Transcribed by: ben_jovi2001@yahoo.com
Corrected by: stephenmaloney@hotmail.com

INTRO

   First guitar (dist - strat/marshall, lot of vibrato on each note)
e|--------------------------|-----------------------------------------------|
B|--------------------------|-----------------------------------------------|
G|--------------------------|---------6---7---6-----------7---6-------------|
D|------------9~---9b11r9---|-----9---------------9---7-----------9---7-----|
A|----7~~-------------------|--7------------------------------------------7-|
E|--------------------------|-----------------------------------------------|
 |
 | Second guitar (basically an octave up - low in the mix)
e|--------------------------|---------9---10--9-----------10--9-------------|
B|-----------12---12b14r12--|-----12--------------12--10---------12--10-----|
G|----9---------------------|--9------------------------------------------9-|
D|--------------------------|-----------------------------------------------|
A|--------------------------|-----------------------------------------------|
E|--------------------------|-----------------------------------------------|




Together, forever

CHORUS
[ Tab from: http://www.guitartabs.cc/tabs/b/bon_jovi/never_say_goodbye_tab_ver_2.html ]
    A       C#m     D   Dm
e|--0--------4------3---1-----|
B|--2--------5------2---2-----|
G|--2--------6------3---3-----| 
D|--2--------6------0---0-----|
A|--0--------4----------------|
E|----------------------------|

e|--------------------------|---------9---10--9-----------10--9-------------|
B|-----------12---12b14r12--|-----12--------------12--10---------12--10-----|
G|----9---------------------|--9------------------------------------------9-|
D|--------------------------|-----------------------------------------------|
A|--------------------------|-----------------------------------------------|
E|--------------------------|-----------------------------------------------|


VERSE

    A   C#m   G    D
e|--0----4----3--------|
B|--2----5----3----3---|
G|--2----6----0----2---| 
D|--2----6----0----0---|
A|--0----4-------------|
E|------------3--------|


G D       G  D 
Together, forever

CHORUS 2

SOLO (over verse rhythm)
                        *artifical harmonic
e|----------------------------------------9b10r9-9b10r9-----------------------
B|------------------------------------------------------10~-------------------
G|---------------7-6---4h6p4----9b11r9~~~-------------------------------------
D|--------7-/9---------------5---------------------------------3-5--7---5-7-9~
A|-----7-----------------------------------------------------3---------5------
E|--5-------------------------------------------------------------------------


e|--------7-10-9-7h9p7-----12b14r12~~---21b22r21-21b22r21--17~~-|
B|-----10--------------10---------------------------------------|
G|---9----------------------------------------------------------|
D|-7------------------------------------------------------------|
A|--------------------------------------------------------------|
E|--------------------------------------------------------------|

Unsure on the fast part

Play chorus 2x with chorus riff and end on A                                 
Comments