Bon Jovi - Misc Chords & Tabs

 

Misc Chords & Tabs

Bon Jovi Chords & Tabs

Version: 1 Type: Tab 0 ratings
1 star 2 stars 3 stars 4 stars 5 stars
comments

Misc Tab

   
##################################################################################
# This file is the author's own work and represents their interpretation of the  #
# song. You may only use this file for private study, scholarship, or research.  #
##################################################################################


I`m not 100% sure this is correct, but... if something is wrong,
    IT`S YOUR BROBLEM!!!!

  Intro \ verse \ chrous.
  G5   D5  C5
e-------------------
b-------------------
g--77---------------
d--55--77--55--5----
a------55--33--3----...
e-------------------


Bridge: just A5


Well, the wrest is up to you if any comments, corrections, GET VENT!!!

**********************************************************************

SHE DON’T KNOW ME 
Bon Jovi (1984)

INTRO: Eb  Cm  G#  Eb  A#

RIFF DURING THE INTRO:

     Eb                     Cm
e --------------------------8-6-6-8---8-6-6-8----
B ---8-6--9-8----8-6--9-8---8-6-6-8---8-6-6-8----
G ---8-7-10-8----8-7-10-8------------------------
D -----------------------------------------------
A -----------------------------------------------
E -----------------------------------------------

RIFFS:

* RIFF 1: (quickly)

e -----------------------------------------------------------
B ---16-15-------16-15-------16-15-------16-15-------16-15---
G ---------15-17-------15-17-------15-17-------15-17---------  
D -----------------------------------------------------------
A -----------------------------------------------------------
E -----------------------------------------------------------


* RIFF 2: (during the chorus)

     Eb                    Cm                   G#                  A# 
e -------------------------8-6-6-8---8-6-6-8------------------------6-6-8-6---6-6-8-6----
B ---8-6--9-8---8-6--9-8---8-6-6-8---8-6-6-8----8-6-6-8---8-6-6-8---6-6-8-6---6-6-8-6----
G ---8-7-10-8---8-7-10-8------------------------8-7-7-8---8-7-7-8---7-7-8-7---7-7-8-7----
D ---------------------------------------------------------------------------------------
A ---------------------------------------------------------------------------------------
E ---------------------------------------------------------------------------------------



Any comments, suggestions, requests, please email me to: danjvrock@yahoo.com
*****************************************************************************

BON JOVI TAB
SHE'S A MYSTERY - CRUSH (2000)
Track 10 
Posted by Luc Bien
Please send comments or corrections to irritantjochie@hotmail.com

Chords:
      EADGBe
Bb  113331
C    335553
Dm 557765
Eb  668886
F     ~~3211   
F*   ~~3011
Gm 355333

Intro : F F* Bb Gm C

Verse: Bb F ( 2 * )
Dm C 
Eb Bb
Gm C

Chorus:
F Bb 
Gm
C

Bridge: ( she's anything in the world(...)it's fire in the rain)
Dm C
F Bb
Gm
C

You also here this little riff played during the intro:
e---5----------------5------------- ( and it goes on
B-----6---8---6-------6---8---6--  like that )
G------------------------------------------------------------------------
D------------------------------------------------------------------------
A------------------------------------------------------------------------
E------------------------------------------------------------------------


******************************************************************************************************

******************************************************************************************************

Someday I'll Be Saturday Night/Bon Jovi

e|----------0-0-------| 
B|-------0--2-0-------|
G|--------------------|
D|--2/4----------4-6--|
A|--2/4---------------|
E|--------------------|

***********************

Bon Jovi – Stay 



(The Bass Tabs in the start and the end of the song) 

A little different then what McDonald’s playing.

E-------------------------------------------------------------
B-------------------------------------------------------------
G-------------------------------------------------------------
D-------------------------------------------------------------
A--4---6-7-6---4-2--------------------------------------------
E---------------------0-2--4-5-4---2-0-2-0-2------------------


(Solo)
E------------------4-------------------4------------------------------
B----4--2--4--2--------4--2--4--2---------4---------------------------
G---------------------2-------------------2------6--4--2--------------
D-----------------------------------------------------------2----------
A----------------------------------------------------------------------
E----------------------------------------------------------------------


********************************************************************************************************

*******************************************************************************************************

Song: Thank you for loving me.
Artist: Bon Jovi.
Album: Crush.
Date: August 3rd, 2002.

Doubts or comments: rockwine@hotmail.com


Tunning      
-e----------
-B----------
-G----------
-D----------
-A----------
-E----------


INTRO PIANO
     D            G        Bm              A
---0-2p0-----------------0-2p0---0h2p0----------
-3-------3-------------3-------3-------3-2-5v---
--------------2---4v----------------------------
------------------------------------------------
------------------------------------------------
------------------------------------------------

LEAD GUITAR INTRO
D                 G    Bm                A
----------------------|-------------------------
-10b12----------------|-10b12-------------------
-------11--9h11-9-7v--|-------11--9h11-9-7h9v---
----------------------|-------------------------
----------------------|-------------------------
----------------------|-------------------------

RIFF A               RIFF B  RIFF C       LEAD GUITAR OUTRO
                                          A            D
--------------------|-------|--------0---|-------------------
-2-2h3-3h5p3----3v--|-3--2--|------------|-------------------
--------------------|-2--2--|-----2------|-------7-9--7vv----
--------------------|-2--2--|---2--------|-----7-------------
--------------------|-------|-0----------|-7h9---------------
--------------------|-------|------------|-------------------
[ Tab from: http://www.guitartabs.cc/tabs/b/bon_jovi/misc_tab.html ]
SOLO
D                   G            A             D
-----------------------------------------------------------------
------------------------------------14-15-17--19h20-19-17-19vv---
--9b11-9b11-9b11r9--7h9------------------------------------------
------------------------7h9---9--7-------------------------------
-----------------------------------------------------------------
-----------------------------------------------------------------


Made by Hugo, Chile (rockwine@hotmail.com).
******************************************

BON JOVI
Thank You For loving me
Album: CRUSH
Tab: Björn Elsner (Bjoern.Elsner@gmx.de)

INTRO(Piano arr. for Guitar)
------------------------------
------------------------------
--------6--8--10--8--6-----6--
------------------------8-----
------------------------------
------------------------------

----------------------------------
----------------------------------
--------6--8--10--8--6---6--8/10\8
-----------------------8----------
----------------------------------
----------------------------------

GUITAR FILL
-----------------------
--8-/10-\-8--6---------
---------------8-6-8~~-
-----------------------
-----------------------
-----------------------


CHORUS

INTRO as OUTRO
-------------------------------
THE 1st FILL and The solo
Fill 1)
---------------
-------1--3--5-
---------------
---------------
---------------
---------------

SOLO(not 100% complete but 98% ;)
-----------------------------------
------------------5-7-9-10~-9b-10~-
-9p7-7h9b-5-7-5\------------------- 
-----------------------------------
-----------------------------------
-----------------------------------

That's all-I'm out - Björn-
****************************

Name: Tyler Pritz

Tabs: Thank You For Loving Me
(JBJ,RS)
By: Bon Jovi
Album: Crush
Tabbed by: Tyler Pritz 

Piano Intro Tabbed For Guitar

e----0--2-p-0-------------0--2-p-0------0-h-2-p-0----
B--3-------------------3-------------3-------------2-
G-------------2---4----------------------------------
D----------------------------------------------------
A----------------------------------------------------
E----------------------------------------------------

Lead Intro Riff during the 2nd

e--5-\-7-\-5--------------5-\-7-5--------------------
B------------5-\-7-\-5------------5-\-7-\-5----------
G-----------------------7-------------------7-9-9-6--
D----------------------------------------------------
A----------------------------------------------------
E----------------------------------------------------

A-DOWN RIFF

e-----------
B--5--5--2--
G--2--2--2--
D--2--2--2--
A--0--0--0--
E--x--x--x--

A-RUN-UP RIFF

e-----------
B--2--3--5--
G--2--2--2--
D--2--2--2--
A--0--0--0--
E--x--x--x--

Bm/Bb (used in the chorus)

e--x--x--
B--3--3--
G--4--4--
D--4--4--
A--2--1--
E--x--x--

INTRO (CHORDS)

D,G,Bm,A-DOWN RIFF(2x)(2x play with lead intro riff)

Solo  

e------------------------------------14-h-15-14--12--14-
B--7-h-5--7-h-5--/-7------------------------------------
G---------------------7-h-9-----------------------------
D----------------------------9--9-\-7-------------------
A-------------------------------------------------------
E-------------------------------------------------------


********************************************************************************************************

********************************************************************************************************


Bon Jovi, These Days.

This is a first time tab, see what you all think 
Its only the beginning, but there is more 
to come as soon as i find time.

This sounds good on the Acoustic but if
you add a little distortion to your electric, it sounds 
real good

LICK 1: INTRO AND OUTRO
|----------------------------2------------------0---|
|--------------1----------3---3----------0-------0--|
|-----------0----0---------------2---------0--------|
|--------------------0-0---------------2------------|
|---------3--------------------------2--------------|
|---------------------------------------------------|

|---------------------------------2---------|
|-------------------1-----------3---3-------|
|---------------------0--------------2------|
|2-2p0------------------2-0--------------2--|
|---------0-2s3-------------------------2---|
|-------------------------------------------|

|-----------0----------------------|
|--0------0------------------------|
|----0-----------------------------|
|--------------2-2p0---------------|
|--------------------0-2s3---------|
|----------------------------------|

*********************************************************************************************************

*********************************************************************************************************

Name: Federico

Tabs: Thank You For Loving Me
By: Bon Jovi
Album: Crush
Tabbed by: Federico comments to bonjovi_federico@hotmail.com

Piano Intro Tabbed For Guitar

e----0--2-p-0-------------0--2-p-0------0-h-2-p-0----
B--3-------------------3-------------3-------------2-
G-------------2---4----------------------------------
D----------------------------------------------------
A----------------------------------------------------
E----------------------------------------------------

Lead Intro Riff during the 2nd

e--5-\-7-\-5--------------5-\-7-5--------------------
B------------5-\-7-\-5------------5-\-7-\-5----------
G-----------------------7-------------------7-9-9-6--
D----------------------------------------------------
A----------------------------------------------------
E----------------------------------------------------

A-DOWN RIFF

e-----------
B--5--5--2--
G--2--2--2--
D--2--2--2--
A--0--0--0--
E--x--x--x--

A-RUN-UP RIFF

e-----------
B--2--3--5--
G--2--2--2--
D--2--2--2--
A--0--0--0--
E--x--x--x--

Bm/Bb (used in the chorus)

e--x--x--
B--3--3--
G--4--4--
D--4--4--
A--2--1--
E--x--x--

INTRO (CHORDS)

D,G,Bm,A-DOWN RIFF(2x)(2x play with lead intro riff)


|----------------2-----------
|--1----------3----3--------
|-----0---------------2-----
|--------2-0-------------0-- < Here move quicly to an Em
|----------------------------
|----------------------------


ANY CORRECTIONS OR PROBLEMS, QUESTIONS ON THIS TAB, EMAIL, 
yoajc@hotmail.com
GOODLUCK PLAYIN,
Transcribed By Andrew Connolly (The GOAT)


*********************************************************************************************************

*********************************************************************************************************


Bon Jovi 
Wedding Day


Chord voicings
G 320033
C x32010
C* x32033
Em* 022033
Em 022000
A* x02233
D xx0232
F 133211
Eb5 x68866


Intro

I---3-/-5--3--------------------I
I---3-/-5--3---3-/-5--3------3-I
I---------------2-/-4--2--0--0-I
I--------------------------------I
I--------------------------------I
I--------------------------------I
I--------------------------------I


*********************************************************************************************************

*********************************************************************************************************




Comments