Bon Jovi - Livin On A Prayer Chords & Tabs

 

Livin On A Prayer Chords & Tabs

Bon Jovi Chords & Tabs

Version: 2 Type: Tab 0 ratings
1 star 2 stars 3 stars 4 stars 5 stars
comments

Livin On A Prayer Tab

   
##################################################################################
# This file is the author's own work and represents their interpretation of the  #
# song. You may only use this file for private study, scholarship, or research.  #
##################################################################################


Artist    : Bon Jovi
song      : Livin' on a  prayer acoustic version (as performed for the WTC tribute)
tabbed by : Christian Strowitzki
tuning    : 1/2 step down


*      = harmonic
~      = vibrato
x      = don't play the string
...    = play note MANY times
(word) = this is what richie plays, (exmpl. (riff1))




Chords used:

      Em     Em2    Csus4  Dsus4  C      D      G      Cadd9
------0------7------3------5------0------3------3------3------
------0------8------3------5------1------2------3------3------
------0------9------5------7------0------3------0------0------
------2------9------5------7------2------0------0------x------
------2------7------3------5------3------x------x------3------
------0------x------x------x------x------x------3------x------

play the Em2 chord like this
----------------------------
----8--8-7--7-7-8--8-8-7----
----9--9-7--7-7-9--9-9-7----
----9--9-7--7-7-9--9-9-7----
----7--7-7--7-7-7--7-7-7----
----------------------------

Em2 (intro)

Intro
----------------------------------------------------
----------------------------------------------------
----------------------------------------------------
--------------5-7-7/9/7-5-7-7--5h7p5----------------
----------5-7------------------------5-7-(7)-(7)----
----5h7p5-------------------------------------------

----12*---------------------------------------------------------------------------
----12*--15b17--------------------------------------------------------------------
-----------------14-12-14-14h16p14-12-14-14h16p14-12-14----12h14p12---------------
----------------------------------------------------------------------------------
-----------------------------------------------------------------------5h7p5p0----
----------------------------------------------------------------------------------


riff 1
----------------------------------
----------------------------------
----------------------------------
--------0--0h2p0------------------
----0-2----------2--0h2p0---------
--------------------------3--0----


riff 2
-------------------------------------------------
----7-8-7h8p7------------------------------------
--------------9---7------------------------------
----------------9--------0h2p0h2p0h2p0h2p0...----
-------------------------------------------------
--------------------0----------------------------

[ Tab from: http://www.guitartabs.cc/tabs/b/bon_jovi/livin_on_a_prayer_tab_ver_2.html ]
riff 3
--------------------------------------12...-14...-15...-----------------------------------
---------------------------------------------------------15b17-17-12----------------------
---------------------------------------------------------------------14-14b16-14-12-------
------------5-7--7/9/7-5-7-7/9/7-5h7------------------------------------------------14----
--------5-7-------------------------------------------------------------------------------
----5-7-----------------------------------------------------------------------------------

-----------------
----------7h8----
----7h9p7--------
-----------------
-----------------
-----------------


solo
-----------------------------------------------------12----------------------------
-----------------------------------------------------12--12-15b17--17p15-----------
------------------------------------------------------x------------------16p14~----
----0h2p0h2p0h2p0h2...--------------5-7-7/9/7-5-7~---------------------------------
--------------------------------5-7------------------------------------------------
-----------------------(0)--5-7----------------------------------------------------

--------------------------------------------------12...-14...-15...--15b----
----------------------------------------------------------------------------
----12-14-14/16-12-14-12-14-14/16~--12--------------------------------------
---------------------------------------14-12h14~----------------------------
----------------------------------------------------------------------------
----------------------------------------------------------------------------

--------------------------------------------------------------------------------
----15-17-15-17-15b17----17-15--------------------------------------------------
-------------------------------16-14b16r14-12----12-12h14p12-------12-14-12~----
----------------------------------------------14-------------12-14--------------
--------------------------------------------------------------------------------
--------------------------------------------------------------------------------

-----------------------------------------------------------------------------
-------------------------------------------------8-8/10--8p7-7/8-------------
-----------------------------------------------9-------------------7-7h9~----
------------5-7-7/9-5-7-7/9-5h7~------5-7-7/9--------------------------------
--------5-7-----------------------5-7----------------------------------------
----5-7----------------------------------------------------------------------


end
----3-3-3-3--3-0--0---------
----3-3-3-3--3-0---0--------
----0-0-0-0--0-0----0-------
----0-0-0-x--x-x-----2------
----x-x-x-3--3-3------2-----
----3-3-3--------------0----
Comments