Bon Jovi - Lie To Me Chords & Tabs

 

Lie To Me Chords & Tabs

Bon Jovi Chords & Tabs

Version: 1 Type: Tab 0 ratings
1 star 2 stars 3 stars 4 stars 5 stars
comments

Lie To Me Tab

   
#----------------------------------PLEASE NOTE---------------------------------#
#This file is the author's own work and represents their interpretation of the #
#song. You may only use this file for private study, scholarship, or research. #
#------------------------------------------------------------------------------#
#

                                Lie To Me
                              -------------
Words & Music by Jon Bon Jovi and Ritchie Sambora
Tabbed by Pablo Alvarez (slide@ctv.es)


Intro (Keyboard cue arr. for guitar):

     Esus4   E      Esus4   E      Asus2   A     Asus2   A
e |--------------|--------------|-------------|-------------|-|         
B |--------------|--------------|---0---------|---0---------|-|         
G |---2------1---|---2------1---|----------2--|----------2--|-|         
D |---2----------|---2----------|---2---------|---2---------|-|         
A |---2----------|---2----------|---0---------|---0---------|-|         
E |---0----------|---0----------|-------------|-------------|-|         

Verse:

[first time start playing the Tab in bar 5:'...feels like there's a stranger']

  %  Esus4                 E                               Esus4    E
e |------------------------0------------------------------|---------0-------|
B |------------------------0------------------------------|---------0-------|
G |------------------------1------------------------------|---------1-------|
D |----9--------------------------------------------------|-----------------|
A |-9h11--------------------------------------------------|----2------------|
E |-0-----------------------------------------------------|-0---------------|
  

     Asus2
e |-------------------------0-----------------------------|-----------0-----|
B |-------------------------0-----------------------------|-----------0-----|
G |-------------------------2-----------------------------|-----2-----------|
D |-------------------------------------------------------|--2--------------|
A |-0-----------------------------------------------------|-----------------|
E |-------------------------------------------------------|-----------------|
      

    F#m11                           (1§)(Asus2)
    [1§]   2 & 3§------------¿      2 & 3§ F#m11  (1§)  
e |---0--------------------0------------|-----------------------0-----------|
B |---0--------------------0------------|-----------------------0-----------|
G |---2--------------------2------------|-----------------------2-----------|
D |---2------------4--------------------|----------------(2)4---------------|
A |----------4--------------------------|---------(0)4----------------------|
E |---2---------------------------------|-----------------------------------|
   

            (1§)(F#m11)                             Ú-----------------------..
            2 & 3§ Asus2                             1. F#m11
e |---------------------------0---------------------|-----------------------..
B |---------------------------0---------------------|-----------------------..
G |---------------------------2---------------------|-----------------------..
D |---------------------(4)2------------------------|-----------------------..
A |--------------(4)0-------------------------------|-----------------------..
E |-------------------------------------------------|-----------------------..
  

  ----------------------------------------------------------------¿
     Esus4   E       Esus4   E       Asus2                        
e |----------0----|----------0----|----------0----|----------0----|-|
B |----------0----|----------0----|----------0----|----------0----|-|
G |----------1----|----------1----|----------2----|------2--------|-|
D |---------------|---------------|---------------|---2-----------|-|          
A |---------------|-----2---------|---0-----------|---------------|-|
E |---0-----------|---0-----------|---------------|---------------|-|          

  Ú------------------------------¿
   2,3.
e |-----0------------------------|-|
B |-----0------------------------|-|
G |-----2--------------------4---|-|
D |-----2-----------------4------|-|
A |-----0--------------2---------|-|
E |------------------------------|-|
  

Chorus:

     Esus4        E                    Esus4      E
e |---------------0-------------------|-----------0---------|
B |---------------0-------------------|-----------0---------|
G |---------------1-------------------|-----------1---------|
D |-----------------------------------|---------------------|
A |-----------------------------------|---------------------|
E |-0---------------------------------|-0-------------------|
      

     C#m7
e |-----------------0-------------------------|---------0-------------------|
B |-----------------0-------------------------|---------0-------------------|
G |-----------------6-------------------------|------6----------------------|
D |-------------------------------------------|---6-------------------------|
A |--4----------------------------------------|-----------------------------|
E |-------------------------------------------|-----------------------------|
     


      F#m11                                  Asus2
e |----------------0----------------------|-------------------0-------------|
B |----------------0----------------------|-------------------0-------------|
G |----------------2----------------------|-------------------2-------------|
D |------------4--------------------------|-----------2---------------------|
A |----2/4--------------------------------|----0----------------------------|
E |---------------------------------------|---------------------------------|
      

                                                     To Coda é
           F#m11                                              Esus4    E 
e |----------------------0-------------------|---------------|---------0----|
B |----------------------0-------------------|---------------|---------0----|
G |----------------------2-------------------|---------------|---------1----|
D |-----------------4------------------------|---------------|--------------|
A |----------2/4-----------------------------|---------------|--------------|
E |------------------------------------------|---------------|-0------------|
    

     Esus4   E                   Asus2                           D.%.al Coda
e |---------------------------|--------------------|-----------------------|-|
B |---------------------------|--------------------|-----------------------|-|
G |---------------------------|--------------------|------9----------------|-|
D |-----------------2--2--4/6-|--4~~~~~-2--2~~~~~--|---9h11--9----9--------|-|
A |----------2-2/4------------|--------------------|-----------9h11---9----|-|
E |---------------------------|--------------------|-----------------------|-|

é Coda:

   (Synth. arr. for Guitar) 
   Hold Chord
     D
e |--2-------2-------2-------2-----|--2-------2-------2-------2--------|
B |--3-------3-------3-------3-----|--3-------3-------3-------3--------|
G |------2-------2-------2-------2-|------2-------2-------2-------2----|
D |--------------------------------|-----------------------------------|
A |--------------------------------|-----------------------------------|
E |--------------------------------|-----------------------------------|
                                                      Oh.__________

     G
e |--------------------------------|-----------------------------------|
B |--------------------------------|-----------------------------------|
G |--4-------4-------4-------4-----|--2-------2-------2-------2--------|
D |------5-------5-------5-------5-|------5-------5-------5-------5----|
A |--------------------------------|-----------------------------------|
E |--------------------------------|-----------------------------------|

     D
e |--2-------2-------2-------2-----|--2-------2-------2-------2--------|
B |--3-------3-------3-------3-----|--3-------3-------3-------3--------|
G |------2-------2-------2-------2-|------2-------2-------2-------2----|
D |--------------------------------|-----------------------------------|
A |--------------------------------|-----------------------------------|
E |--------------------------------|-----------------------------------|
                                    
[ Tab from: http://www.guitartabs.cc/tabs/b/bon_jovi/lie_to_me_tab.html ]
     G                                                             To Solo
e |--------------------------------|---------------------------------------|
B |--------------------------------|---------------------------------------|
G |--4-------4-------4-------4-----|--2-------2-----------7--7---7---------|
D |------5-------5-------5-------5-|------5-------5-------7--7-7h9--7-----7|
A |--------------------------------|------------------7h9--------------9---|
E |--------------------------------|---------------------------------------|

Solo:
     D
e |--------------------------------|---------------------------------------|
B |--------------------------------|---------------------------------7--7--|
G |---------7--7--7--7-------------|------7----7--------7------7--7--7--7--|
D |----7--7h9--9--7--7----7--------|------7----7h9p7----7h9----7--9--------|
A |--7h9----------------7h9--7--5--|-7/9-------------9------9--------------|
E |--------------------------------|---------------------------------------|
     
     Bm7
e |-----------10-------------------------------|---------------------------|
B |-----------------------------7--------------|---------------------------|
G |---9b(11)----9b(11)rp7-------7--------------|----7----------------------|
D |-----------------------9--7-----7--9----7---|--7h9----------------------|
A |------------------------------------------9-|------7h9--7--5---7--5-----|
E |--------------------------------------------|---------------7-------7-7\|

     Em7                            G
e |------------------------------|-----------------------------------------|
B |--7--7------------------------|-------------------------10\8------------|
G |--7--7--9--7---7--7-----------|------7--7-----------7---11\9---7~~~-----|
D |-------------7h9--7----7------|------7--7h9----7--9---------------------|
A |---------------------7h9--5---|--7/9--------9---------------------------|
E |------------------------------|-----------------------------------------|

     Em7
e |--------------------------------------7--|------------------------------|-|
B |-------------------------7-7----------7--|------------------------------|-|
G |-----7---7---------------7-7--9b(11)-----|-9b(11)rp7---7~-9-0---7-7-----|-|
D |-----7---7h9p7----7-7h9------------------|-----------9--------7h9-7-----|-|
A |---------------9-------------------------|-------------------------9\7-5|-|
E |-----------------------------------------|------------------------------|-|

Bridge:

     C#m7
e |----------------0--------------------|--------------0-------------------|
B |----------------0--------------------|--------------0-------------------|
G |----------------4--------------------|--------------4-------------------|
D |-------------------------------------|---------6------------------------|
A |---4---------------------------------|---4------------------------------|
E |-------------------------------------|----------------------------------|
     

     F#m11                                                    Asus2
e |------------0--------------------|-------------0-----------|------------..
B |------------0--------------------|-------------0-----------|------------..
G |------------4--------------------|-------------4-----------|------------..
D |---------------------------------|---------4---------------|------------..
A |---------------------------------|-----4-------------------|--0---------..
E |---2-----------------------------|-------------------------|------------..
  

                                                           G#m
                                                           P.M.------------..
e ..--------0------------------|----------------0----------|---------------..
B ..--------0------------------|----------------0----------|---------------..
G ..--------2------------------|-----------2---------------|---------------..
D ..---------------------------|---------------------------|---------------..
A ..---------------------------|-------0-------------------|-6---6------6--..
E ..---------------------------|---------------------------|-4---4------4--..
    

  ..------------------------------¿        Bsus4
e ..-------------------------------------|---------------0----------|
B ..-------------------------------------|---------------0----------|
G ..-------------------------------------|---------------4----------|
D ..-------------------------------------|----------4---------------|
A ..----6-------6-----------6-----6------|------1-------------------|
E ..----4-------4-----------4-----4------|--------------------------|
    

     Esus4        E                    Esus4      E
e |---------------0-------------------|-----------0---------|
B |---------------0-------------------|-----------0---------|
G |---------------1-------------------|-----------1---------|
D |-----------------------------------|---------------------|
A |-----------------------------------|---------------------|
E |-0---------------------------------|-0-------------------|
      

     C#m7
e |-----------------0-------------------------|---------0-------------------|
B |-----------------0-------------------------|---------0-------------------|
G |-----------------6-------------------------|------6----------------------|
D |-------------------------------------------|---6-------------------------|
A |--4----------------------------------------|-----------------------------|
E |-------------------------------------------|-----------------------------|
   


      F#m11                                  Asus2
e |----------------0----------------------|-------------------0-------------|
B |----------------0----------------------|-------------------0-------------|
G |----------------2----------------------|-------------------2-------------|
D |------------4--------------------------|-----------2---------------------|
A |----2/4--------------------------------|----0----------------------------|
E |---------------------------------------|---------------------------------|
 

                                             P.M.--------------------¿
           F#m11                             (cresc.)                  Esus4
e |----------------------0-------------------|------------------------------..
B |----------------------0-------------------|------------------------------..
G |----------------------2-------------------|------------------------------..
D |-----------------4------------------------|------------------------------..
A |----------2/4-----------------------------|--4--4--4--4--4--4--4---------..
E |------------------------------------------|--2--2--2--2--2--2--2-0-0--0--..
    

            E        Esus4      E                    Asus2
e ..--------0-------|----------------------------|-------------------------|
B ..--------0-------|----------------------------|-------------------------|
G ..--------1-------|----------------------------|-------------------------|
D ..----------------|--------------------2---4/6-|----4~~--2--2~~~~~~------|
A ..----------------|-----------2--2/4-----------|-------------------------|
E ..----------------|----------------------------|-------------------------|
                              Vocals as lib. (come on, lie to me...

                               F#m7
e |------------0---------------|-----------0------|------------------------|
B |------------0---------------|-----------0------|------------------------|
G |------------2---------------|-----------2------|------------------------|
D |----------------------------|------------------|----------2--2--4/6-----|
A |---0---0--------------------|------------------|--2--2/4----------------|
E |----------------------------|-2----------------|------------------------|
           

     Asus2
e |-------------------|-----------------------|-|
B |-------------------|-----------------------|-|
G |-------------------|-----------------------|-|
D |---4~~~-2--2~~~~---|-----------------------|-|
A |-------------------|--0--0--0--0--0--0--0--|-|
E |-------------------|-----------------------|-|

End: 

     Esus4    E       Esus4   E              Asus2          (repeat to fade)
e |-----------0----|-------------------------|-----------------|--------0--|-|
B |-----------0----|-------------------------|-----------------|--------0--|-|
G |-----------1----|-------------------------|-----------------|--------2--|-|
D |----------------|---------------2--2-4/6--|--4~~---2-2~~~~--|-----------|-|
A |----------------|--------2-2/4------------|-----------------|--0--0-----|-|
E |--0-------------|-------------------------|-----------------|-----------|-|



Verse 2



Note: I have written some characters in a no usual way. Here they are:

 Coda: é
 Segno: %


       _/_/_/_/   _/         _/   _/_/_/      _/_/_/_/  +-------------------+ 
     _/         _/         _/   _/     _/   _/          |Pablo Alvarez Doval|
      _/_/    _/         _/   _/     _/   _/_/_/        |  slide@ctv.es     |
        _/  _/         _/   _/     _/   _/              |Asturias - Spain   |
_/_/_/_/  _/_/_/_/   _/   _/_/_/_/    _/_/_/_/          +-------------------+ 
Comments