Bon Jovi - Keep The Faith Chords & Tabs

 

Keep The Faith Chords & Tabs

Bon Jovi Chords & Tabs

Version: 2 Type: Bass Tab 0 ratings
1 star 2 stars 3 stars 4 stars 5 stars
comments

Keep The Faith Bass Tab

Felt compelled to share this tab with you after seeing the other basstab for this song 
that wasn't quite right.

Here's how to play the beginning of the song:
[ Tab from: http://www.guitartabs.cc/tabs/b/bon_jovi/keep_the_faith_btab_ver_2.html ]
G|------------------|------------------|------------------|
D|------5-3-0-5-0-3-|------5-3-0-5-0-3-|------5-3-0-5-0-3-|
A|------------------|------------------|3-3-3-------------|
E|3-3-3-------------|3-3-3-------------|------------------|
------------------|
------5-3-0-5-0-3-|
------------------|
3-3-3-------------|

And here's when the singin comes in:

G|------------------|------------------|------------------|
D|------5-3-0-5-0-3-|------5-3-0-5-0-3-|------5-3-0-5-0-3-|
A|------------------|1-1-1-------------|3-3-3-------------|
E|3-3-3-------------|------------------|------------------|
------------------|
------5-3-0-5-0-3-|
------------------|
3-3-3-------------|

Listen to the song for the timing and all.

Tabbed by Erik J, former guitarist in Sid & Things, May 2002
Comments