Bon Jovi - Its My Life Chords & Tabs

 

Its My Life Chords & Tabs

Bon Jovi Chords & Tabs

Version: 4 Type: Tab 0 ratings
1 star 2 stars 3 stars 4 stars 5 stars
comments

Its My Life Tab

   
##################################################################################
# This file is the author's own work and represents their interpretation of the  #
# song. You may only use this file for private study, scholarship, or research.  #
##################################################################################

I’ve Spend a lot of time figuring out the tabs I think there are no mistakes but if you find any please send me the corrections on my e-mail which is basketball74@hang-ten.com


Bon Jovi - It's My Life

Abreviations used:

(bu) bend upP
(bd) bend down
(po) pull off
(rhb) re-hit bend


Intro:



This ain't a song for the broken hearted

A silent prayer for the faith departed

|---------------------------|----------------|-----------------------|----------------|
|---------------------------|----------------|-----------------------|----------------|
|--5--5--------------------|----------------|--5--5--x--x--5-----|----------------|
|--5--5--------------------|----------------|--5--5--x--x--5-----|----------------|
|--3--3--------------------|----------------|--3--3--x--x--3-----|----------------|
|---------------------------|----------------|-----------------------|----------------|

And I ain't gonna be just a face in the crowd, you're gonna

|---------------------------|----------------|

|---------------------------|----------------|
|--5-----------------------|----------------|
|--5--(let chord ring)---|----------------|
|--3-----------------------|----------------|
|--------------------------|----------------|

hear my voice when I shout it out loud

|--------------------------|----------------|
|--------------------------|----------------|
|--------------------------|----------------|
|--3--(let chord ring)---|----------------|
|--3-----------------------|----------------|
|--1-----------------------|----------------|

"It's my life..."

|------------------|--------------------------|-------------------|----------------|
|------------------|--------------------------|-------------------|----------------|
|--5--5-----------|------------------x--x---|--5--5------------|----------------|
|--5--5-----------|------------------x--x---|--5--5------------|----------------|
|--3--3-----------|------------------x--x---|--3--3------------|----------------|
|------------------|--------------------------|------------------|----------------|


This is for the one's who stood their ground
[ Tab from: http://www.guitartabs.cc/tabs/b/bon_jovi/its_my_life_tab_ver_4.html ]
|---------------------------|----------------------|-----------------------|----------------|
|---------------------------|----------------------|-----------------------|----------------|
|--5-----------------------|-----------------------|--5--5--x--x--5------|----------------|
|--5-----------------------|-----------------------|--5--5--x--x--5------|----------------|
|--3-----------------------|-----------------------|--3--3--x--x--3------|----------------|
|---------------------------|----------------------|-----------------------|----------------|

For Tommy and Gina, never back down

|---------------------------|----------------|------------------------|----------------|
|---------------------------|----------------|------------------------|----------------|
|--5--5--------------------|----------------|--5--5--x--x--5-------|----------------|
|--5--5--------------------|----------------|--5--5--x--x--5-------|----------------|
|--3--3--------------------|----------------|--3--3--x--x--3-------|----------------|
|---------------------------|----------------|------------------------|----------------|

Tomorrow's getting harder, make no mistake
|--------------------------|----------------|
|--------------------------|----------------|
|--5-----------------------|----------------|
|--5--(let chord ring)---|----------------|
|--3-----------------------|----------------|
|--------------------------|----------------|

Luck ain't even luck, you gotta make your own breaks

|--------------------------|----------------|
|--------------------------|----------------|
|--------------------------|----------------|
|--3--(let chord ring)---|----------------|
|--3-----------------------|----------------|
|--1-----------------------|----------------|


Solo:

(G#5)
(Bb5)
|------------------------------------------|------------------------|-----------------------|-------------------------|
|------------------------------------------|------------------------|-----------------------|----------------------|
|------------------------------------------|------------------------|-----------------------|---------------------|
|------------------------------------------|------------------------|-----------------------|---------------------|
|---5-(bu and bd 1 fret and -----------|--(keep bending!)---|-(keepbending!) ---|-------------5 (po) 3---|
|-------move wah pedal with bends)-|------------------------|-----------------------|-------------------------|

(C5)
|------------------------------|------------------------------------------|
|---------6--6 (bu 2 frets)--| (rhb) (rhb) (rhb then release)-4----|
|------3-----------------------|------------------------------------------|
|---5--------------------------|------------------------------------------|
|------------------------------|------------------------------------------|
|------------------------------|------------------------------------------|

(F5)
|--------------------------|-------------------------|
|--6-----------------------|------------------------|
|-----3--5----------------|-------------------------|
|--------------------------|-------------1----------|
|--------------------------|-----------1-----1--3--|
|--------------------------|--------3---------------|

Comments