Bon Jovi - Its My Life Chords & Tabs

 

Its My Life Chords & Tabs

Bon Jovi Chords & Tabs

Version: 3 Type: Tab 0 ratings
1 star 2 stars 3 stars 4 stars 5 stars
comments

Its My Life Tab

   
##################################################################################
# This file is the author's own work and represents their interpretation of the  #
# song. You may only use this file for private study, scholarship, or research.  #
##################################################################################

Bon Jovi -- It's My Life


Intro: 

|------------------|-----------------------|-------------------|-
|------------------|-----------------------|-------------------|-
|--5--5-----------|-----------------------|--5--5------------|---
|--5--5-----------|-----------------------|--5--5------------|-- 
|--3--3-----------|-----------------------|--3--3------------|-- 
|------------------|-----------------------|-------------------|-


|---------------------------|----------------|-------------------
|---------------------------|----------------|-------------------
|--5-----------------------|----------------|--5--5--x--x--5-----
|--5-----------------------|----------------|--5--5--x--x--5-----
|--3-----------------------|----------------|--3--3--x--x--3-----
|---------------------------|----------------|-------------------



|---------------------------|----------------|-------------------
|---------------------------|----------------|-------------------
|--5--5--------------------|----------------|--5--5--x--x--5-----
|--5--5--------------------|----------------|--5--5--x--x--5-----
|--3--3--------------------|----------------|--3--3--x--x--3----
|---------------------------|----------------|-------------------



|---------------------------|----------------| 
|---------------------------|----------------| 
|--5-----------------------|----------------| 
|--5--(let chord ring)---|----------------| 
|--3-----------------------|----------------| 
|--------------------------|----------------| 





|--------------------------|----------------| 
|--------------------------|----------------| 
|---3----------------------|----------------| 
|---3----(let chord ring)---|----------------| 
|---1-----------------------|----------------| 
|-------------------------|----------------| 


It's (PLAY RIFF A) my 

life 

|------------------|--------------------------|------------------
|------------------|--------------------------|------------------
|--5--5-----------|------------------x--x---|--5--5------------|-
|--5--5-----------|------------------x--x---|--5--5------------|-
|--3--3-----------|------------------x--x---|--3--3------------|-
|------------------|--------------------------|------------------


|---------------------------|-------------------|----------------
|---------------------------|-------------------|----------------
|--5-----------------------|--------------------|--5--5--x--x--5-
|--5-----------------------|--------------------|--5--5--x--x--5-
|--3-----------------------|--------------------|--3--3--x--x--3-
|---------------------------|-------------------|----------------



[ Tab from: http://www.guitartabs.cc/tabs/b/bon_jovi/its_my_life_tab_ver_3.html ]
|---------------------------|----------------|-------------------
|---------------------------|----------------|-------------------
|--5--5--------------------|----------------|--5--5--x--x--5-----
|--5--5--------------------|----------------|--5--5--x--x--5-----
|--3--3--------------------|----------------|--3--3--x--x--3-----
|---------------------------|----------------|-------------------


|--------------------------|----------------| 
|--------------------------|----------------| 
|--5-----------------------|----------------| 
|--5--(let chord ring)---|----------------| 
|--3-----------------------|----------------| 
|--------------------------|----------------| 



|--------------------------|----------------| 
|--------------------------|----------------| 
|--3-----------------------|----------------| 
|--3--(let chord ring)---|----------------| 
|--1-----------------------|----------------| 
|-------------------------|----------------| 


Solo:  
Use a Wah-Wah pedal for this first section, move the pedal with the 
bend
|------------------------------------------|---------------------
|------3-bend –with 5------------------|------------------------|
|------------------------------------------|---------------------
|------------------------------------------|---------------------
|------------------------------------------|---------------------
|------------------------------------------|---------------------


|------------------------------|---------------------------------
|----6-----6—-----------4 bend with 6 (four times)-------------- 
|------3-----------------------|---------------------------------
|--------5---------------------|---------------------------------
|------------------------------|---------------------------------
|------------------------------|---------------------------------

 
|--------------------------|-------------------------| 
|--6-----------------------|------------------------| 
|-----3--5----------------|-------------------------| 
|--------------------------|-------------1----------| 
|--------------------------|-----------1-----1--3--| 
|--------------------------|--------3---------------| 





Below is the Riff A, and Bar chords used through the chorus:

RIFF A

E----------------------------
B----------------------------
G----------------------------
D----------------------------
A----------------------------
E-------3----------6---------


C5Bb5

e--------------------e------------------
b--------------------b------------------
g--------5-----------g--------3---------
d--------5------------D--------3--------
A--------3-----------A--------1---------
E-------------------E-------------------


Eb5                                   G#5

e--------------------                 e--------------------
b-------------------                  b--------------------
g-------------------                  g----------6----------
D--------8-----------                 d----------6----------
A--------6-----------                 A----------4----------
E--------------------                 E--------------------
Comments