Bon Jovi - Its My Life Chords & Tabs

 

Its My Life Chords & Tabs

Bon Jovi Chords & Tabs

Version: 2 Type: Tab 2 ratings
1 star 2 stars 3 stars 4 stars 5 stars
comments

Its My Life Tab

                         Intro/ Verse
E |------------------
B |----------8-9-8---
G |-5-5----8---------  emph.the first two notes of the c min/g chord 
D |-5-5-10-----------  whenever played
A |-3-3--------------
E |-3-3--------------
                        Chorus
E |-----------------------------------------------------
B |-----------------------------------------------------
G |-5-5-5-5-5---------8-8-8-8--------------------------
D |-5-5-5-5-5-6-6-6-6-8-8-8-8-8-8-8-8-8-8-8-8-----------
A |-3-3-3-3-3-6-6-6-6-6-6-6-6-8-8-8-8-8-8-8-8-----------
E |-3-3-3-3-3-4-4-4-4---------6-6-6-6-5-5-5-5-----------             
                         Solo- This is to be played along with verse
E |--------------------------------------------------------------
B |--------------------------------------------------------------
G |--------------------------------------------------------------
D |--------------------------------------------------------------
A |-5h6p5h6p5h6p5h6p5h6p5h6p5h6p5h6p5h6p5h6p5h6p5h6p5h6p5h6p5--3-
E |--------------------------------------------------------------

E |------------------------------------------------------------------------
B |------------------------------------------------------------------------
G |-3-5-8-10b(12)-----10b(12)-10b(12)-10b(12)----10-8-10-------------------
D |--------------------------------------------------------8--10-----------
A |-----------------------------------------------------------------3-5-1-3
E |---------------------------------------------------------------3--------
[ Tab from: http://www.guitartabs.cc/tabs/b/bon_jovi/its_my_life_tab_ver_2.html ]
Comments