Bon Jovi - Its My Life Live Chords & Tabs

 

Its My Life Live Chords & Tabs

Bon Jovi Chords & Tabs

Version: 1 Type: Tab 0 ratings
1 star 2 stars 3 stars 4 stars 5 stars
comments

Its My Life Live Tab

   
Tabbed by: josh(tait)Edwards
Tuning:standart E,A,D,G,B,E

I know that this version may sound weird to you but, don't play it with the 
album version. All the tabs on this site are off the album version (the live
version is half-step down.) I know it's 99% correct. 

INTRO:
E|-----------|-----------|-----------|-----------|
B|-----------|-----------|-----------|-----------|
G|-4--4------|-----------|-4--4------|-----------|
D|-4--4------|-----------|-4--4------|-----------|
A|-2--2------|-----------|-2--2------|-----------|
E|-----------|-----------|-----------|-----------|

VERSE:
E|-----------|-----------|--------------|-----------|
B|-----------|-----------|--------------|-----------|
G|*4-(4)-----|-----------|-4--4-x-x-4-4-|----------*|
D|*4-(4)-----|-----------|-4--4-x-x-4-4-|----------*|
A|-2-(2)-----|-----------|-2--2-x-x-2-2-|-----------|
E|-----------|-----------|--------------|-----------|
     (^ play only at the second time)

PRE-CHORUS:
E|-----------|-----------|-----------|-----------|------|
B|-----------|-----------|-----------|-----------|------|
G|-4=========|======-x-x-|--9========|===========|-rest-|
D|-4=========|======-x-x-|--9========|===========|------|
A|-2=========|======-x-x-|--7========|===========|------|
E|-----------|-----------|-----------|-----------|------|

CHORUS:
E|-------------|-------------|-------------|-------------|
B|-------------|-------------|-------------|-------------|
G|*4========-4-|-4========-4-|-7========-7-|-6========-6-|
D|*4========-4-|-5========-5-|-7========-7-|-7========-7-|
A|-2========-2-|-5========-5-|-5========-5-|-4========-4-|
E|-------------|-3========-3-|-------------|-------------|
[ Tab from: http://www.guitartabs.cc/tabs/b/bon_jovi/its_my_life_live_tab.html ]
E|-------------|-------------|-------------|-------------|
B|-------------|-------------|-------------|-------------|
G|-4========-4-|-4==========-|-------------|------------*|
D|-4========-4-|-5==========-|-7==========-|------------*|
A|-2========-2-|-5==========-|-7==========-|-1=====2=====|
E|-------------|-3==========-|-5==========-|-------------|

Repeat INTRO
Repeat VERSE
Repeat PRE-CHORUS, at the end let the F power chord ring
Repeat CHORUS

BRIDGE:

1st guitar:
E|---------------|---------------|---------------|
B|---------------|---------------|---------------|
G|*-------------*|*-------------*|*-------------*|
D|*5-5--x-5-5--x*|*7-7--x-7-7--x*|*5-5--x-5-5--x*|
A|-5-5--x-5-5--x-|-7-7--x-7-7--x-|-5-5--x-5-5--x-|
E|-3-3--x-3-3--x-|-5-5--x-5-5--x-|-3-3--x-3-3--x-|

E|---------------|-----------------|
B|---------------|-----------------|
G|-9-9-x---------|-9-9-9-9-9-9-9-9-|
D|-9-9-x---------|-9-9-9-9-9-9-9-9-|
A|-7-7-x---------|-7-7-7-7-7-7-7-7-|
E|---------------|-----------------|
                  P.M. --==release

2nd guitar(solo):
E|-------------------------------------------------------------------|
B|---------------------------------4-6b8---8-8-8b6p4-6---------------|
G|-7b8b7b8-etc........7b8b7p5----5---------------------3-5~~---------|
D|-----------------------------6---------------------------------1---|
A|-------------------------------------------------------------1---1-|
E|-----------------------------------------------------------3-------|

Both guitars:
E|-----------|-----------|-----------|-----------|-----------|
B|-----------|-----------|-----------|-----------|-----------|
G|-4=========|===========|===========|===========|-4--4------|
D|-4=========|===========|===========|===========|-4--4------|
A|-2=========|===========|===========|===========|-2--2------|
E|-----------|-----------|-----------|-----------|-----------|

Repeat CHORUS 4x
Comments