Bon Jovi - It S My Life Chords & Tabs

 

It S My Life Chords & Tabs

Bon Jovi Chords & Tabs

Version: 1 Type: Tab 4 ratings
1 star 2 stars 3 stars 4 stars 5 stars
comments

It S My Life Tab

   
“It’s my life”    
Jon Bon Jovi
Made by : Brian 

Intro :

    C5       v
|----------2-3-2-|---|
|------1-4-------|---|
|---555----------|-5-|
|---555----------|-5-|
|---333----------|-3-|
|----------------|---|
     2x

|---------|
|---------|
|-5555----|
|-5555----|
|-3333----|
|---------|
  This ain’t a song for 
  the broken hearted
       
2nd intro :

|-----------------------------------|
|-----------------------------------|
|---5555555555555555----------------|
|---5555555555555555--333333333333--|
|---3333333333333333--333333333333--|
|---------------------111111111111--|
 And I ain’t just gonna be a face in the crowd   

chorus
[ Tab from: http://www.guitartabs.cc/tabs/b/bon_jovi/it_s_my_life_tab.html ]
   
|------------------------------------|
|------------------------------------|
|--55555555---------8888888----------|
|--55555555-6666666-8888888-8888888--|
|--33333333-6666666-6666666-8888888--|
|-----------4444444---------6666666--|
  a) It’s my life…
  b) My heart is like an open highway… 
 
|--------------------------------------|
|--------------------------------------|
|--5555555----------3333333--3---4--5--|
|--5555555-66666666-3333333--3---4--5--|
|--3333333-66666666-1111111--1---2--3--|
|----------44444444--------------------|
  a)I just wanna live while I’m alive.
   



  Solo:
  
  16x		  v   
|-----|----------------------------------|
|-----|----------------------------------|
|-----|----8-10b(12)-10b-10b-10b-10-8-10-|
|-----|-10-------------------------------|
|-5h6-|----------------------------------|
|-----|----------------------------------|

|---------|-------------------------------|
|---------|-------------------------------|
|---------|----8--------------------------|
|-10-8h10-|-10---10-\\0--------------------|
|---------|-------------------------------|
|---------|-------------------------------|

   2nd intro 
   
   Chorus a few times
Comments