Bon Jovi - In These Arms Chords & Tabs

 

In These Arms Chords & Tabs

Bon Jovi Chords & Tabs

Version: 1 Type: Tab 0 ratings
1 star 2 stars 3 stars 4 stars 5 stars
comments

In These Arms Tab

   
##################################################################################
# This file is the author's own work and represents their interpretation of the  #
# song. You may only use this file for private study, scholarship, or research.  #
##################################################################################

In These arms by Bon Jovi

Tabbed by Imran Sajjad and Mark Balfour

Tuning:
Guitar 1: standard (EADGEe) for all chords
Guitar 2: standard (EADGEe) for progs and solo

Chords used:
*       EADGBe
E/B:____x7999xhold note:_~
E:______022100hammer-on:_h
A:______x02220pull off:__p
B:______x24442slide:_____s

Prog A:
     E            A
e-|--x-----------------|
B-|--9~---9--7--9-10~--|
G-|--9~----------------|
D-|--9~----------------|
A-|--7~----------------|
E-|--7-----------------|

Prog B:
e-|-------|
B-|-------|
G-|-------|
D-|--0h2--|
A-|-------|
E-|-------|

Prog C:
e-|--2-4-5-4p2--|
B-|-------------|
G-|-------------|
D-|-------------|
A-|-------------|
E-|-------------|
[ Tab from: http://www.guitartabs.cc/tabs/b/bon_jovi/in_these_arms_tab.html ]
Prog D:
e-|----0---2--|
B-|--3---3----|
G-|-----------|
D-|-----------|
A-|-----------|
E-|-----------|

Prog E:
e-|--7-----------------|
B-|----10-9-10-10---9--|
G-|--------------------|
D-|--------------------|
A-|--------------------|
E-|--------------------|


Solo:
         E          B      A                 E            E                 B
e-|--7-9----------------|--9-9~p7---7h9----------|--------14s16-14h16-14----14--|
B-|---------9-9p7---7~--|---------9-----9p7------|-----------------------17-----|
G-|------9--------9-----|-------------------8h9--|------------------------------|
D-|---------------------|------------------------|--13h14-----------------------|
A-|---------------------|------------------------|------------------------------|
E-|---------------------|------------------------|------------------------------|
     B     A                                   E
e-|--17s16s14-14h16p14h16p14-14p12-14p12-9-7s2-2--|
B-|-----------------------------------------------|
G-|-----------------------------------------------|
D-|-----------------------------------------------|
A-|-----------------------------------------------|
E-|-----------------------------------------------|
Comments