Bon Jovi - In These Arms Chords & Tabs

 

In These Arms Chords & Tabs

Bon Jovi Chords & Tabs

Version: 1 Type: Bass Tab 0 ratings
1 star 2 stars 3 stars 4 stars 5 stars
comments

In These Arms Bass Tab

                           BASSLINE FOR IN THESE ARMS
                             As recorded by Bon Jovi
                     (From the 1994 LP recording CROSSROADS)

Transcribed by Mick Raisey

||----------------|-----------------|---------------|-------------------||
||o-2-2----2-2----|-----2---2-2-----|-2-2----2-2----|-----2---2-2------o||
||o------2--------|---2---2-----4-2-|------2--------|---2---2-----2-4--o||
||--------------0-|-4---------------|-------------0-|-4-----------------||


                                                1.
|---------------|--------------|---------------|---------------|-----------------|| from 
|---------------|--------------|---------------|-----------1---|-2-2----2-2-----o||  top
|-4-4----4-4----|h4p6-4-4-6-7--|------------4--|-2-----2-4---2-|------2---------o||
|------4------4-|--------------|-5-5--0-5-7----|-----2---------|-------------0---||


 2.               $
|---------------||------------------|-----------------|-----------------|------------------|
|---------------||o-----------------|-------------1---|---------------6-|------------------|
|-2--2--2-0-----||o-----------------|-2-2-2-2-2-4---2-|-4-4-4-4-4-6-7---|---------------2--|
|-----------4-2-||--0-0-0-0-0-2-4-0-|-----------------|-----------------|-5-5-5-0-5-4-2----|
                    I'd hold you


                  1.                                                    2.
|-----------------|-----------------|-----------------|------------------||------------------|
|-----------------|-----------------|-----------------|-----------------o||------------------|
|-----------------|-4-4-4-4-4-6-7-4-|-2-2-2-2-2-2-2-2-|-0-0-0-0-0-2-4-0-o||---------------0--|
|-0-0-0-0-0-2-4-0-|-----------------|-----------------|------------------||-4-4-4-4-4-4-4----|


                                  To Coda
|-----------------|-----------------------||----------------|-----------------|----------------|
|-----------------|-----------------------||o-2-2----2-2----|-----2---2-2-----|-2-2----2-2-----|
|-2-2-2-2-2-2-2-2-|-0-0-0---0-2-4-0-------||o------2--------|---2---2-----4-2-|------2---------|
|-----------------|-------0---------------||--------------0-|-4---------------|-------------0--|


                                                                            D.S. al Coda
|------------------||---------------|----------------|---------------|-----------------|
|-----2---2-2-----o||---------------|----------------|---------------|-----------------|
|---2---2-----2-4-o||-4-4----4-4----|h4p6-4--4-4-6-7-|------------4--|-2-2-2-2-2-0-----|
|-4----------------||------4------4-|----------------|-5-5--0-5-7----|-------------4-2-|

[ Tab from: http://www.guitartabs.cc/tabs/b/bon_jovi/in_these_arms_btab.html ]
  &
|-----------------|------------|-----------------|-----------------|------------------|
|-2-2-2-2-2-2-2-2-|------------|-----------------|-----------------|------------------|
|-----------------|------------|-----------------|---------%-------|-------------4----|
|-----------------|--4---5--6--|-7-7-7-7-7-7-7-7-|-----------------|-5-5-5-5-5-7---5--|
                   1 +   3  4    Your clothes


|-----------------|-----------------|-----------------|-----------------|------------------|
|-----------------|-----------------|-----------------|-----------------|------------------|
|-----------------|-2-2-2-2-2-2-2-2-|--------%--------|-0-0-0-0-(0)--0--|-0-0-0-0-0-2-0-2--|
|-5-5-4-4-2-2-0-0-|-----------------|-----------------|-----------------|------------------|


                                       1.                                    2.
||------------------|-----------------|-----------------|------------------||------------------|
||o-----------------|-----------------|-----------------|-----------------o||------------------|
||o-----------------|-2-2-2-2-2-2-2-2-|-4-4-4-4-4-4-4-4-|-0-0-0-0-0-2-4-0-o||------------------|
||--0-0-0-0-0-0-0-0-|-----------------|-----------------|------------------||-2-2-2-2-2-2-2-2--|
   Solo

|-----------------|-----------------|-----------------|-----------------||-------------------|
|-----------------|-----------------|-----------------|-----------------||o------------------|
|-0-0-0-0-0-0-0-0-|-2-2-2-2-2-2-2-2-|--------%--------|--------%--------||o------------------|
|-----------------|-----------------|-----------------|-----------------||--0-0-0-0-0-2-4-0--|


                                                                         1.                
|-----------------|-----------------|-----------------|-----------------|------------------|
|-------------1---|---------------6-|-----------------|-----------------|------------------|
|-2-2-2-2-2-4---2-|-4-4-4-4-4-6-7---|-0-0-0-0-0-----2-|-----------------|-4-4-4-4-4-6-7-4--|
|-----------------|-----------------|-----------4-2---|-0-0-0-0-0-2-4-0-|------------------|


                                       2.
|-----------------|------------------||-----------------|-----------------|------------------|
|-----------------|-----------------o||-----------------|-----------------|------------------|
|-2-2-2-2-2-2-2-2-|-0-0-0-0-0-2-4-0-o||-----------------|-2-2-2-2-2-2-2-2-|-0-0-0-0-0-2-4-0--|
|-----------------|------------------||-4-4-4-4-4-4-4-5-|-----------------|------------------|


||------------------|-----------------|-----------------|-------------------||
||o-----------------|-----------------|-----------------|------------------o||
||o-----------------|-2-2-2-2-2-2-2-2-|-4-4-4-4-4-4-4-4-|-0-0-0-0-0-0-0-0--o||
||--0-0-0-0-0-0-0-0-|-----------------|-----------------|-------------------||
                                                              repeat & fade

--------------------------------------------------------------------------------
email gemini67@globalfreeway.com.au
--------------------------------------------------------------------------------
******************************************************************************************
* This file was generated with Power Tab Editor - Get it at http://home.tct.net/~blarsen *
******************************************************************************************

Comments