Bon Jovi - In And Out Of Love Chords & Tabs

 

In And Out Of Love Chords & Tabs

Bon Jovi Chords & Tabs

Version: 1 Type: Bass Tab

In And Out Of Love Bass Tab

   
Title: In & out of love
Artist: Bon Jovi
Album: One wild night
Tabber: Steph
Email: cyberbassist@hotmail.com


Intro

G|------------|--------------|
D|*----------*|--------------|
A|*----------*|--------------|
E|--55555555--|-555-55-5-5-5-|


chorus

G|---------------------|
D|*-------------------*|
A|*-------------------*|
E|-55555555-1111-3333--|


"Young and wired..."
"Running wild..."
  A
G|------------------------------------------------------------------------|
D|------------------------------------------------------------------------|
A|------------------------------------------------------------------------|
E|55555555-55555555-55555555-55555555-55555555-55555555-55555555-55555555-|
[ Tab from: http://www.guitartabs.cc/tabs/b/bon_jovi/in_and_out_of_love_btab.html ]
   G                 D                 G                 D         CDC
G|-----------------------------------------------------------------------|
D|-----------------------------------------------------------------------|
A|-------------------55555555-55555555-------------------55-55-5-5-353---|
E|-33333333-33333333-------------------33333333-33333333-----------------|

chorus
   A        F     G  x3  E
G|---------------------|-----------|
D|*-------------------*|-----------|
A|*-------------------*|-----------|
E|-55555555-1111-3333--|-00000000--|


Punch: 2:56
G|-------------------|-----------------------------|
D|-------------------|-----------------------------|
A|------5~------5~---|------5-----5-2-222222222222-|
E|-5~-3~--5~--3~--5~-|-5--3----5-3-----------------|


SOLO`        End of solo
            
G|---------|--------|
D|*-------*|--------|
A|*-------*|-3-5-7~-|
E|-5--530--|--------|

End: 5:37

G|------------------|---|
D|------------------|---|
A|---------------5~-|-0-|
E|-1-3-1-3-5-5-5----|---|

Figure out where each part goes
EnJOy!
cyberbassist