Bon Jovi - Ill Be There For You Chords & Tabs

 

Ill Be There For You Chords & Tabs

Bon Jovi Chords & Tabs

Version: 1 Type: Tab 0 ratings
1 star 2 stars 3 stars 4 stars 5 stars
comments

Ill Be There For You Tab

   
##################################################################################
# This file is the author's own work and represents their interpretation of the  #
# song. You may only use this file for private study, scholarship, or research.  #
##################################################################################



Upstroke the first and third Em of every verse, and stop when it says *STOP*
        
Intro: 
e---------------------------------------------------------------------------I
B---------------------------------------------------------------------------I
G---5/7-7----7/9-9----9/12-12----12/11-11----5/7-7----7/9-9----9/12--12/11--I
D---0------0--------0----------0-------------0------0--------0-----------0--I
A---------------------------------------------------------------------------I
E---------------------------------------------------------------------------I


                                 Chorus 1:

Riff 1:
e--------------------------------------------------------------------------I
B--------------------------------------------------------------------------I
G-----5/7-7-----7/9-9-----9/12--12/11--------------------------------------I
D-----0-------0---------0-----------0--------------------------------------I
A--------------------------------------------------------------------------I
E--------------------------------------------------------------------------I


                               
(Chorus 1)
Solo:      Play Chorus Chords Twice



                             Chorus 2:
   C#5    (Riff 1)
I'll be there for you
[ Tab from: http://www.guitartabs.cc/tabs/b/bon_jovi/ill_be_there_for_you_tab.html ]
Outro: 
e--------------------------------------------------------------------------I
B--------------------------------------------------------------------------I
G--5/7-7----7/9-9----9/12-12----12/11-11----5/7-7----7/9-9----9/12--12/11--I
D--0------0--------0----------0-------------0------0--------0-----------0--I
A--------------------------------------------------------------------------I
E--------------------------------------------------------------------------I


******************************************************************************************************

***************************************************************************************************

Subject: b/bon_jovi/id_die_for_you.crd
Date: Fri, 6 Jun 1997 10:27:24 +0100 (GMT+0100)
From: PM van der Meulen 

I'd Die For You, Bon Jovi (Jon Bon Jovi, Richie Sambora, Desmond Child)
From: Slippery When Wet
Track #8


Intro (don't look too much at the timing):
Part 1:
|------------------------------|
|.----------------------------.|
|--2----2---------------5-5-4--|
|--2----2-3----x-x-5----5-5-4--|
|.-0----0-3----x-x-5----3-3-2-.|
|---------1----x-x-3-----------|

Part 2:
[This part I'm not 100% sure:]
-----------------------------------------
-----------------------------------------
-----------------------------------------
-----------------------------------------
-0--2--3----------0-------0--2---------0-
------------1--3-------3---------0--3----


-----------------------------------------
-----------------------------------------
-----------------------------5-5-4-------
-----------------------------5-5-4-------
-0--2--3----------0----------3-3-2-------
------------1--3-------3-----------------***





Repeat chorus
ending with D E(7th fret) F G A

=================================================================
Brought to you by:
Piet Marcus van der Meulen
meule301@hio.tem.nhl.nl
http://www.engineering.tem.nhl.nl/~meule301


===============================================================
Piet Marcus van der Meulen
HI-Leeuwarden
meule301@hio.tem.nhl.nl
http://www.engineering.tem.nhl.nl/~meule301

    3 KINDS OF PEOPLE: THOSE WHO CAN COUNT & THOSE WHO CAN'T
===============================================================
Comments