Bon Jovi - Hook Me Up Chords & Tabs

 

Hook Me Up Chords & Tabs

Bon Jovi Chords & Tabs

Version: 1 Type: Tab 0 ratings
1 star 2 stars 3 stars 4 stars 5 stars
comments

Hook Me Up Tab

   
this is the whole song (hook me up) from the album BOUNCE. the 
section coming out of the intro isn't totally right, so e mail me 
if you know it PLEASE.

intro(same as in chorus)
E|
B|
G|
D|2-------  3-
A|2   X 18  3-  (let ring)   repeat once
E|0-------  1-

-------------------------------------------------------------------
-------------------------------------------------------------------
--------------77777------------------------------------------------
22222--55555--77777--77777-----------------------------------------
22222--55555--55555--77777-repeat once-----------------------------
00000--33333---------55555-----------------------------------------

-------------------------------------------------------------------
-------------------------------------------------------------------
---0---------------------------------------------------------------
--2-4-2-0----5-4-2--00-2-5-4-2-0-2---------------------------------
-2-----------------------------------------------------------------
0------------------------------------------------------------------

solo
[ Tab from: http://www.guitartabs.cc/tabs/b/bon_jovi/hook_me_up_tab.html ]
12-12-12-12-10-10-10-12-12-12-10-10-12-12-12-12-10-10-10-12-12---15
-------------------------------------------------------------------
-------------------------------------------------------------------
-------------------------------------------------------------------
-------------------------------------------------------------------
-------------------------------------------------------------------

15-15-15-14-14-14-12-12-12-10-10-----------------------------------
-----------------------------------12-12-12-12-10-10-10-10-8-8-8--7
-------------------------------------------------------------------
-------------------------------------------------------------------
-------------------------------------------------------------------
-------------------------------------------------------------------

7-7----------------------------------------------------------------
-------------------------------------------------------------------
-------------------------------------------------------------------
-------------------------------------------------------------------
-------------------------------------------------------------------
-------------------------------------------------------------------

play all these parts and listen to the song and you will eventually 
know when and where to play these parts.
Comments