Bon Jovi - Have A Nice Day Chords & Tabs

 

Have A Nice Day Chords & Tabs

Bon Jovi Chords & Tabs

Version: 6 Type: Tab

Have A Nice Day Tab

Have A Nice Day - Bon Jovi
Tabbed by edbert

Tuning: standard

Intro
e|---------------------------------------------------------------------------|
B|---------------------------------------------------------------------------|
G|--6---9-------9---4--4-----------------------------------------------------|
D|--6---9---7---9---4--4-----------------------------------------------------|
A|--4---7---7---7---2--2-----------------------------------------------------|
E|------0---5---0------------------------------------------------------------|
x2

verse part 1
e|---------------------------------------------------------------------------|
B|---------------------------------------------------------------------------|
G|--6xxxxxxxxxxxxxx6---7------------4--4-------------------------------------|
D|--6xxxxxxxxxxxxxx6---7---7---(2)--4--4-------------------------------------|
A|--4xxxxxxxxxxxxxx4---5---7---(2)--2--2-------------------------------------|
E|---------------------0---5---(0)-------------------------------------------|
x2

verse part 2
e|---------------------------------------------------------------------------|
B|---------------------------------------------------------------------------|
G|--6--------7---------------------------------------------------------------|
D|--6--------7--------4-------7----------------------------------------------|
A|--4--------5--------4-------7----------------------------------------------|
E|-----------0--------2-------5----------------------------------------------|

[ Tab from: http://www.guitartabs.cc/tabs/b/bon_jovi/have_a_nice_day_tab_ver_6.html ]
chorus
e|---------------------------------------------------------------------------|
B|---------------------------------------------------------------------------|
G|--6---------7----4---------------------------------------------------------|
D|--6----7----7----4---------------------------------------------------------|
A|--4----7----5----2---------------------------------------------------------|
E|-------5----0--------------------------------------------------------------|
x3
e|---------------------------------------------------------------------------|
B|---------------------------------------------------------------------------|
G|---------------------------------------------------------------------------|
D|--4--4--4--4--4--4--7--7---------------------------------------------------|
A|--4--4--4--4--4--4--7--7---------------------------------------------------|
E|--2--2--2--2--2--2--5--5---------------------------------------------------|


bridge
e|---------------------------------------------------------------------------|
B|---------------------------------------------------------------------------|
G|--6---9-------9---4--4-----------------------------------------------------|
D|--6---9---7---9---4--4-----------------------------------------------------|
A|--4---7---7---7---2--2-----------------------------------------------------|
E|------0---5---0------------------------------------------------------------|


solo
e------------------------------------------------------------------|
b-13^~~~13^r12-10-13^~~~13-12-10h12-13-12-10-12~~~~14\13-10--------|
g--------------------------------------------------12\11-11-12^~~~-|
d------------------------------------------------------------------|
a------------------------------------------------------------------|
E------------------------------------------------------------------|

e--------------------------------13^---13^13^13^13rb1312r11----------|
b-11--13^-11--13^-11--13^-11--13^------------------------------------|
g-13^r----13^r----13^r----13^r------------------------------11~~~~---|
d--------------------------------------------------------------------|
a--------------------------------------------------------------------|
E--------------------------------------------------------------------|

e-------------------||
b-/10\9-7-----------||
g---9-----6-4-2-2-2-||     
d---------------2-2-||
a-------------------||
E-------------------||

enjoy