Bon Jovi - Have A Nice Day Chords & Tabs

 

Have A Nice Day Chords & Tabs

Bon Jovi Chords & Tabs

Version: 5 Type: Tab

Have A Nice Day Tab

   
-----------------------------------------------------------------------------
	 Have a nice day solo by bon jovi
-----------------------------------------------------------------------------
Tabbed by:t.j.m.
Email:

Tuning:standard

e|------------------10-----------------------10------------------------------|
B|---13B-13B-10-13B----13P(10)--10-------------------------------------------|
G|----------------------------12--12-10---12B--12B*P10-12B~~~~---------------|
D|--------------------------------------12-----------------------------------|
A|---------------------------------------------------------------------------|
E|---------------------------------------------------------------------------|
[ Tab from: http://www.guitartabs.cc/tabs/b/bon_jovi/have_a_nice_day_tab_ver_5.html ]
e|----------------------------------------13B-13B-13-13-12-12----------------|
B|------10-13b----10-13b---10-13b---10-13b-------------------13-13-----------|
G|---12b-------12b------12b------12b-------------------------------12~~~~~~--|
D|---------------------------------------------------------------------------|
A|---------------------------------------------------------------------------|
E|---------------------------------------------------------------------------|
im not for sure on this part but i know he stayes in the Dm pentatonic scale
e|--------------------10-----------------------------------------------------|
B|---10---------------10-----------------------------------------------------|
G|-----12-10----------10-----------------------------------------------------|
D|----------12-10-----12-----------------------------------------------------|
A|---------------12---12-----------------------------------------------------|
E|--------------------10-----------------------------------------------------|

| /  slide up
| \  slide down
| h  hammer-on
| p  pull-off
| ~  vibrato
| +  harmonic
| x  Mute note
===============================================================================