Bon Jovi - Have A Nice Day Chords & Tabs

 

Have A Nice Day Chords & Tabs

Bon Jovi Chords & Tabs

Version: 2 Type: Tab 0 ratings
1 star 2 stars 3 stars 4 stars 5 stars
comments

Have A Nice Day Tab

This is my first tab in UG, it sounds almost exactly the same as the original!

e-----------------------------------------------------------------------------------------------|
B-'12b(14%)(14)r12----12b(14%)-(14)r12---------------------------------------------------------|
G------------------13------------------13p11----11----11-11b(13)~'(13)r11----11~----------------|
D--------------------------------------------14----14--------------------14---------------------|
A-----------------------------------------------------------------------------------------------|
E-----------------------------------------------------------------------------------------------|
[ Tab from: http://www.guitartabs.cc/tabs/b/bon_jovi/have_a_nice_day_tab_ver_2.html ]
e------------12----------12----------12----------12------12b(14)~-(14)r12-12-12-11-11-----------|
B-------12h14-------12h14-------12h14-------12h14-------------------------------------14-14-----|
G--11h13-------11h13-------11h13-------11h13------------------------------------------------11%-|
D-----------------------------------------------------------------------------------------------|
A-----------------------------------------------------------------------------------------------|
E-----------------------------------------------------------------------------------------------|

e----------------------------------5-5----------------------------------------------------------|
B---10-10-10-9-9-9-7-7-7-----------5-5----------------------------------------------------------|
G----9--9--9-8-8-8-6-6-6-----------6-6----------------------------------------------------------|
D------------------------0-0-0-4-0-7-7----------------------------------------------------------|
A------------------------0-0-0-4-0-7-7----------------------------------------------------------|
E----------------------------------5-5----------------------------------------------------------|


Legend:
'    - rake
b    - bend
()   - bend to the note in brackets
(14) - strike the already bended string
%    - tremolo arm vibrato
h    - hammer on
p    - pull off
/    - slide
~    - let ring for a while

Good luck and have fun!!
Comments