Bon Jovi - Fever Chords & Tabs

 

Fever Chords & Tabs

Bon Jovi Chords & Tabs

Version: 1 Type: Tab

Fever Tab

 this is another live tab from me it was played on the keep the faith live gig i herd
this song played plenty of times but bon jovi's is the best so far I know this tab is
about 97.5% correct

 intro + verse: played on bass set for guitar

 ------------------|
 ------------------|
 ------------------|  repeated several times
 ------------------|
 ------------------|
 -0-3-0-3/6--------|

 chorus: same riff as above with another guitar with light power chords
 on the top doesn' really matter whitch ones

[ Tab from: http://www.guitartabs.cc/tabs/b/bon_jovi/fever_tab.html ]
solo 1: play twice

 ---------------------------15--12---------------------------------------|
 -12-12-------------12--11------12--11-----------------------------------|
 -12-12-14BrBr--13----------------------11-------------------------------|
 -12-12------------------------------------------------------------------|
 ------------------------------------------------------------------------|
 ------------------------------------------------------------------------|

 not yet done solo 2 but will post it in as soon as posible.