Bon Jovi - Everyday Chords & Tabs

 

Everyday Chords & Tabs

Bon Jovi Chords & Tabs

Version: 3 Type: Tab 0 ratings
1 star 2 stars 3 stars 4 stars 5 stars
comments

Everyday Tab

 submited by: h20
 artist: bon jovi (they rock)
 song: every day

 it has been doing my head in because know one can play this wright
 so here it is. if you don't like it kiss my a$$

 any qutions e-mail me on hot mail at www.h_2k_11@hotmail.com
[ Tab from: http://www.guitartabs.cc/tabs/b/bon_jovi/everyday_tab_ver_3.html ]
E:-----------------------------------------------------------|
B:-----------------------------------------------------------|
G:-----------------------------------------------------------|
D:-----------------------------------------------------------|
A:-7-7-7-7-7-7--7--7--7-7-7--7--5-5-5-5-5-5--5--5--5-5-5--5--|
E:-5-5-5-5-8-5--5--5--5-8-5--5--3-3-3-3-6-3--3--3--3-6-3--3--|

E:------------------------------------------------------------|
B:------------------------------------------------------------|
G:------------------------------------------------------------|
D:------------------------------------------------------------|
A:-3-3-3-3-3-3--3--3--3-3-3--3--2-2-2-2-2-2--2--2--2-2-2-5----|7 REPEAT
E:-1-1-1-1-4-1--1--1--1-4-1--1--0-0-0-0-3-0--0--0--0-3-0-3/5--|
Comments