Bon Jovi - Every Word Was A Piece Of My Heart Chords & Tabs

 

Every Word Was A Piece Of My Heart Chords & Tabs

Bon Jovi Chords & Tabs

Version: 1 Type: Tab 0 ratings
1 star 2 stars 3 stars 4 stars 5 stars
comments

Every Word Was A Piece Of My Heart Tab

   
##################################################################################
# This file is the author's own work and represents their interpretation of the  #
# song. You may only use this file for private study, scholarship, or research.  #
##################################################################################

Subject: b/bon_jovi_jon/every_word_was_a_piece_of_my_heart.tab
Date : 20th July 1997

Every Word Was A Piece Of My Heart
taken off the album Destination Anywhere
by Jon Bon Jovi

transcribed by Brendan Gan 
Pls send comments. I'd very much appreciate it

Your Jon Bon Jovi tab provider strikes again :)


Chords used : Dsus2  xx0230
              Dsus/E xx2230 - Dsus2 with 4th string E bass
              D      xx0232
              A      x02220
              G      320033


           |---0-----0----------0-----0-------|
           |-----3-----3---3------3-----3---3-|
           |-------2-----2----------2-----2---|
           |-0----------------2---------------|
           |----------------------------------|
           |----------------------------------|
            Dsus2             Dsus2/E
                
 
           |---0-----0----------0-----0-------|
           |-----3-----3---3------3-----3---3-|
           |-------2-----2----------2-----2---|
           |-0----------------2---------------|
           |----------------------------------|
           |----------------------------------|
            Dsus2             Dsus2/E

       
           |---0-----0----------0-----0---------0-----0---------0-----0-----|
           |-----3-----3---3------3-----3---3-----3-----3---3-----3-----3---|
           |-------2-----2----------2-----2---------2-----2---------2-----2-|
           |-0----------------2---------------0---------------0-------------|
           |----------------------------------------------------------------|
           |----------------------------------------------------------------|
            Dsus2             Dsus2/E

Dsus2
Heyyyyyy now
           ^
           |-0-----0-----------------|
           |---3-----3---3-----------|
           |-----2-----2-------------|
           |-------------------------|
           |-------------------------|
           |-------------------------|


*special edition* - provided the solo coz I'm in a good mood :) Enjoy!!
                    (though it may not be exactly correct, sorry:)
Solo:                  1/2bend
|------------------------------------------------------------------------|
|-----------------------------------------------6-6h7p6--4--6~--6/7-7----|
|--------------------------------6h8----6--6~----------------------------|
|-4~------5/7----7~----7^---7--------------------------------------------|
|------------------------------------------------------------------------|
|------------------------------------------------------------------------|

|------------------------------------------------------------------------|
|-6----------------------------------------------------------------------|
|----6--6~---------------------------------------------------------------|
|------------------------------------------------------------------------|
|------------------------------------------------------------------------|
|------------------------------------------------------------------------|

Courtesy of Brendan Gan - Hope you enjoyed it :)
Wanna talk more bout BJ & other cool music, discuss more bout the guitar,
drop me a line - bgws@hotmail.com
Peace, God Bless, C'ya

"What we call human nature in actuality is human habit." - Jewel Kilcher


****************************************************************************************************

****************************************************************************************************


Date: Tue, 28 Oct 1997 00:04:54 -0800 (PST)
From: Antti Iiskola 
Subject: Jon Bon Jovi - Every Word Was A Piece Of my Heart

Every Word Was A Piece Of My Heart 
----------------------------------
from the album "Destination Anywhere" (1997)
by Jon Bon Jovi 
Transcribed by Antti Iiskola
               iceman_ai@hotmail.com
               antti.iiskola@mbnet.fi
[ Tab from: http://www.guitartabs.cc/tabs/b/bon_jovi/every_word_was_a_piece_of_my_heart_tab.html ]
This is the most Bon Jovi-sounding song on the record, wouldn't you agree.
The basic rhythm figure continues through all the verses, bass implies 
different harmonies to the two chords Dadd9 and Asus4/E. In the second verse
the letters behind slashes (i.e. Dadd9/F#) are the bass notes, guitar plays
just Rhy.fig.1. The lyrics are a bit faulty, I'll fix them later. I hope you
get the idea. Enjoy, and e-mail me for any corrections or comments. 

           
Rhy.fig.1

e |---0-----0-------|---0-----0--------|
B |-----3-----3---3-|-----3-----3---3--|
G |-------2-----2---|-------2-----2----|
D |-0---------------|-2----------------|
A |-----------------|------------------|
E |-----------------|------------------|


--====================987654321_0==_
Content-Type: text/plain; charset="us-ascii"

--====================987654321_0==_--


*******************************************************************************************************

*******************************************************************************************************


I've transcripted it from the acoustic version,played by Jon 
when he was here last year. 

Fabiano
                               /João Monlevade,MG,Brazil./

PS: Coments,corrections and suggestions will be welcome. E-mail me.

E-mail: fabsilva@usa.net
  
Chords used:

G320033
D/F#300232
A002220 [Jon changes, sometimes,   
Em022000to Asus4{002230} and
C032010    comes back to A]



           Destination Anywhere
              (Jon Bon Jovi)

INTRO:

G  D/F#  A


SOLO:
During the solo, Jon plays the same chords used in chorus:

Em C G D/F#

I Think that the acoustic solo is something like this:

Play quickly and a lot of times each one of these positions.
                    
e----12-----12-----10-----10-------------------------------
B----12-----13-----10-----10-------------------------------
G----12-----12-----11-----11-------------------------------
D----14-----14-----12-----12-------------------------------
A----------------------------------------------------------
E----------------------------------------------------------

BRIDGE:
G
When these wheels spin, baby they can all eat our dust

[Play F# and go to Em]

   G       Em
e--3-------0----
B--3-------0----
G--0-------0----
D--0-------2----
A--2-------2----
E--3---2---0----


e----------------------------------------------------------
B----------------------------------------------------------
G----------------------------------------------------------
D---------5--5--5--5--5--5--5--5--5/7--7--7--7--7--7--7--7/
A---------3--3--3--3--3--3--3--3--3/5--5--5--5--5--5--5--5/
E----------------------------------------------------------

 
e----------------------------------------------------------
B----------------------------------------------------------
G----------------------------------------------------------
D-----9--9--9--9--9--9--9--9/5--5--5--5--5--5--5--5--------
A-----7--7--7--7--7--7--7--7/3--3--3--3--3--3--3--3--------
E----------------------------------------------------------

 
e----------------------------------------------------------
B----------------------------------------------------------
G----------------------------------------------------------
D-------5--5--5--5--5--5/4--4/2--2--2--2--2--2--2--2-------
A-------3--3--3--3--3--3/2--2/0--0--0--0--0--0--0--0-------
E----------------------------------------------------------

      (play G)  
e--3----------|
B--3----------| Continue playing
G-------------| G untill the chorus.
D-------------|
A--2----------|
E--3----------| 


END:

During this last solo, Jon plays again the same chords of the
chorus.
This solo seems like the first.
Play quickly and lot's of times each one of these positions

e----12-----12-----15-----14-------------------------------
B----12-----13-----15-----15-------------------------------
G----12-----12-----12-----14-------------------------------
D----14-----14-----12-----16-------------------------------
A----------------------------------------------------------
E----------------------------------------------------------

Finish the song with Em.

(Remembering, it was transcripted from the acoustic version,
played by Jon when he was here in Brazil.)


Comments