Bon Jovi - Every Day Chords & Tabs

 

Every Day Chords & Tabs

Bon Jovi Chords & Tabs

Version: 3 Type: Tab 0 ratings
1 star 2 stars 3 stars 4 stars 5 stars
comments

Every Day Tab

   
##################################################################################
# This file is the author's own work and represents their interpretation of the  #
# song. You may only use this file for private study, scholarship, or research.  #
##################################################################################

Everyday by Jon bon Jovi, Richie Sambora, Desmond child, David Brian,
and Ticco Torries

Tabbed by Imran Sajjad (tabber and guitarist) 
          Mark Balfour (bass guitarist)

note:these tabs are copied from audio so they may contain mistakes. Mail us at
'dal_roti13@hotmail.com' if you have some problem with it or have a correction.

Tuning:
Guitar 1: standard (EADGBe) (for all chords and solo)
Guitar 2: standard (EADGBe) (for all progs)

Chords used:
*   EADGBe
Am__x02210        slide:______________s
G___320003        repeat last chord:__/  repeat till next chord:__/.
D5__xx023x        hold note:__________~
Em__577555(barre) hammer-on:__________h

*  Prog A:     Prog B:     Prog C:     Prog D:
e-|--------5--|--------3--|--------1--|--------------|
B-|--5---5----|--3---3----|--1---1----|--------3-----|
G-|----7------|----5------|----3------|--2-0-2-------|
D-|-----------|-----------|-----------|--------------|
A-|-----------|-----------|-----------|--------------|
E-|-----------|-----------|-----------|--------------|


intro:
e-|------------------------------------------|
B-|------------------------------------------|repeat this for all of the verses and
G-|------------------------------------------|chorus (where ever there are heavy
D-|--2-------0--2-----0--2-------0--2-----0--|chords) repeat once for intro
A-|--2-/-/-/-2--2-/-/-2--2-/-/-/-2--2-/-/-2--|
E-|--0-------3--0-----3--0-------3--0-----3--|



pre-chorus:
[Am]goodbye to all my yesterdays,[D5-Am]goodbye so long im on[G] my wa[Em]y
[ Tab from: http://www.guitartabs.cc/tabs/b/bon_jovi/every_day_tab_ver_3.html ]
chorus:
e-|--5~-------------------------8~-----7~-------------|
B-|---------------------------------------------8~----|
G-|---------------------------------------------------|
D-|---------------------------------------------------|
A-|---------------------------------------------------|
E-|---------------------------------------------------|
     Ive had enough of cryin, bleedin, sweatin, dyin 

e-|----------------------------------5~---------------|
B-|---------------------------------------------------|
G-|---------------------------------------------------|
D-|---------------------------------------------------|
A-|---------------------------------------------------|
E-|---------------------------------------------------|
     hear me when i say, gonna live my life everyday

e-|--3s5--------------------|
B-|--3s5-----------------1--|
G-|--3s5-/-/-/-/-/----------|
D-|--5s7--------------------|
A-|--5s7-----------0-0---3--|
E-|--3s5---------------3----|

Verse 2: (play like verse 1)
Pre-chorus:
Goodbye to all those rainy nights
Goodbye, so long, I'm moving on

[chorus]

Bridge:
Prog D
[Am/.]Hit the gas, take the wheel
I just make myself a deal
There ain't [D5/.]nothing gonna get in my [Am]way
everyday

Solo:
e-|--3h5~s3s7~s3-------------------------------3h5-5-3-5-3-5-5-3-5h7-7-5-7-5-7-7-5--|
B-|---------------------------------------------------------------------------------|
G-|--------------4h5-4h5-4h5s2--4h5-4h5-4h5s2---------------------------------------|
D-|---------------------------------------------------------------------------------|
A-|---------------------------------------------------------------------------------|
E-|---------------------------------------------------------------------------------|

e-|--8-8-8-8-8-10~-12~-12s15s17--|
B-|------------------------------|
G-|------------------------------|
D-|------------------------------|
A-|------------------------------|
E-|------------------------------|

Pre chorus: (play like before, only this part)
Goodbye, so long, I'm moving on

chorus x3

-------------------------------------------------------------------------------------
Comments