Bon Jovi - Diamond Ring Solo Chords & Tabs

 

Diamond Ring Solo Chords & Tabs

Bon Jovi Chords & Tabs

Version: 1 Type: Tab 0 ratings
1 star 2 stars 3 stars 4 stars 5 stars
comments

Diamond Ring Solo Tab

Had to play this at a session about 6 months ago, couldn't find it anywhere,
so I had to work it out myself.  It is my interpretation, so some of the phrasing
may be a bit loose.  This is my first effort at a TAB so please feel free to 
improve on any errors.

'Nothing that I wouldn't doooo...'

------------------5-----------5-----------5-----------
----0-01------------5-------5---5-------5--5----------
--2------2-0----------5---5-------5---5-----5---------
-------------02---------7-----------7--------7--7-5-7-
------------------------------------------------------
------------------------------------------------------
[ Tab from: http://www.guitartabs.cc/tabs/b/bon_jovi/diamond_ring_solo_tab.html ]
-------------5-7-8--7--8--------5---------------------
--5--------5-------------8b10-----8-5-----------------
-------57-----------------------------7b9r-5-7-5------
-----7-------------------------------------------7----
------------------------------------------------------
------------------------------------------------------

-----------------8-10-10b12-10-8--8--8----------------
------------8-10---------------10-10-10--8--5---------
-----5-7s9------------------------------------7-5-----
-5-7--------------------------------------------------
------------------------------------------------------
------------------------------------------------------

------------------------------------------------------
-----5-----5------------------------------------------
-5-7---5-7---7-5--7-5-7-------------------------------
------------------------------------------------------
------------------------------------------------------
------------------------------------------------------

			...When You're Hungry...

Cheers.

truefaith

Email scoobytrue@hotmail.com
Comments