Bon Jovi - Diamond Ring Chords & Tabs

 

Diamond Ring Chords & Tabs

Bon Jovi Chords & Tabs

Version: 1 Type: Bass Tab 0 ratings
1 star 2 stars 3 stars 4 stars 5 stars
comments

Diamond Ring Bass Tab

intro / beginning

G|---||--------------|		
D|---||--------------|		
A|-0-||----------0---|   X 3		            
E|---||0----3--------|		

“Diamond Ring, wear it on your hand....”

|---||-----------------|		 	 
|---||-----------------|		 	  
|-0-||-----------0-----|     X3 	  	
|---||--0----3---------|		 	  

|----------------|	
|----------0-----|	
|--0--3----------|   X2
 |---------------|	

|---------------|
|---------------|
|-----------0---|    X2
|--0---3--------|

“Baby you’re my everything, Diamond Ring”

|--------------------------|			
|----------0-----0--2------|			
|--0---3-------------------|  X1  		
|-----------------------1--|	      		

|--------------|
|--------------|
|-----------0--|   X2
|--0---3-------|

“red, red rose....”

|----||-----------------|		 	 
|----||-----------------|		 	  
|-0--||------------0-----|     X3 	  	
|----||--0----3---------|		 	  
[ Tab from: http://www.guitartabs.cc/tabs/b/bon_jovi/diamond_ring_btab.html ]
 |----------------|	
 |----------0-----|	
 |--0--3----------|   X2
 |----------------|	

|---------------|
|---------------|
|-----------0---|    X2
|--0---3--------|

“Like a fire inside that grows...”

|--------------------------|			
|----------0-----0--2------|			
|--0---3-------------------|  X1  		
|-----------------------1--|	      		

|--------------|
|--------------|
|-----------0--|   X2
|--0---3-------|

for the rest of the song, just keep repeating the same thing from "red, red rose..." or from “Diamond Ring, wear it on your hand....” (they're basicly the same thing). Except for the bridge.
Listen to the cd (These Days) to get the timing.

Now I’m just a beginner at this, this being one of my first tabs, but I am a HUGE Bon Jovi fan and this all sounds right to me....

...I did have trouble with the bridge (that starts “When your hungry” and ends with “wouldn’t do for you”).  I do know that the key notes in that are the open D and A, so if anyone could post the bridge, it would be much appreciated............thanks.
								-Seńorita Gina
Comments