Bon Jovi - Captain Crash Chords & Tabs

 

Captain Crash Chords & Tabs

Bon Jovi Chords & Tabs

Version: 3 Type: Tab 0 ratings
1 star 2 stars 3 stars 4 stars 5 stars
comments

Captain Crash Tab

   
##################################################################################
# This file is the author's own work and represents their interpretation of the  #
# song. You may only use this file for private study, scholarship, or research.  #
##################################################################################

tabbed by kevin peck
email me kev13421@yahoo.com
this is how it is on the album
let me know what you think



CAPTAIN CRASH AND THE BEAUTY QUEEN FROM MARS
 


intro

 e|---------------------------|------------------------------|
 B|---------------------------|------------------------------|
 G|--------5----------5-------|-------5-----------------0----|
 D|---------------------------|---------------------2-3------|
 A|--3-3-3------3-3-3-------3-|-3-3-3-------3-3-3-3----------|
 E|---------------------------|------------------------------|

     C                                           F                            G

  |-------------------|------------------------|----------------------------|-----------------------------|
  |-------------------|------------------------|----------------------------|-----------------------------|
  |-5-----------------|----------------X-X-X-X-|-10------------------10---0-|-12---------------------12\--|
  |-5-----------------|----------------X-X-X-X-|-10------------------10---0-|-12---------------------12\--|
  |-3-----------------|----------------X-x-X-X-|--8-------------------8-----|-10---------------------10\--|
  |-------------------|------------------------|----------------------------|-----------------------------|

     C                                                     
                                            F     (bend 1 half)     G   
  |-----------------|---------------------|---------------------|-----------------------------------------|
  |-----------------|---------------------|---------------------|-----------------------------------------|
  |-----------9-----|---------------9-----|--------------^------|-------------------7---------------------|
  |-10--12----------|-----10--12----------|-----10--12---9------|----9---9--9--9--------------------------|
  |-----------------|---------------------|---------------------|-----------------------------------------|
  |-----------------|---------------------|---------------------|-----------------------------------------|


verse1

guitar2 
  *                                                                                                                     *
  |--------------------------------|----------------------------|-------------------------------------------------------|
  |--------------------------------|----------------------------|-----------------0--------1----------------------------|
  |---------------------0----------|---------------------0------|-------------2---0--------2-----------0----------------|
  |----------2--3-------2----------|----2--2--2--3-------2------|---3-----3---3---------------------0-------------------|
  |---3----------------------------|----------------------------|-------------------------------------------------------|
  |--------------------------------|----------------------------|-------------------------------------------------------|  
 

verse2

guitar2
  *
  |--------------------------------|----------------------------|--------------------------------------------------------------|
  |--------------------------------|----------------------------|-----------------0--------1-----------------------------------|
  |---------------------0----------|---------------------0------|-------------2---0--------2--------0--0--0--2----4------------|
  |----------2--3-------2----------|----2--2--2--3-------2------|---3-----3---3------------------------------------------------|
  |---3----------------------------|----------------------------|--------------------------------------------------------------|
  |--------------------------------|----------------------------|--------------------------------------------------------------|

  |--------------------------------|----------------------------|--------------------------------------------------------------|
  |--------------------------------|----------------------------|-----------------0--------1-----------------------------------|
  |---------------------0----------|---------------------0------|-------------2---0--------2--------0-----0--0-----2-----0-----|
  |----------2--3-------2----------|----2--2--2--3-------2------|---3-----3---3------------------------------------------------|
  |---3----------------------------|----------------------------|--------------------------------------------------------------|
  |--------------------------------|----------------------------|--------------------------------------------------------------|                               


Chorus
[ Tab from: http://www.guitartabs.cc/tabs/b/bon_jovi/captain_crash_tab_ver_3.html ]
guitar 2
  *
  |--------------------|-------------------------|-----------------------------------|---------------------------|----------
  |--------------------|-------------------------|-----------------------------------|---------------------------|----------
  |--5-----------------|---------------X--X-X-X--|--10------------------------10---0-|---12------------------12--|--5-------
  |--5-----------------|---------------X--X-X-X--|--10------------------------10---0-|---12------------------12--|--5-------
  |--3-----------------|---------------X--X-X-X--|---8-------------------------8-----|---10------------------10--|--3-------
  |--------------------|-------------------------|-----------------------------------|---------------------------|----------
                                                                                              *
   -----------------------------------------------------------------|-------------------------------------------------------|
   -----------------------------------------------------------------|-------------------------------------------------------|
   ----------------X---X--X--X-------10---------------------10---0--|----12--------------------12---------------------------|
   ----------------X---X--X--X-------10---------------------10---0--|----12--------------------12---------------------------|
   ----------------X---X--X--X--------8----------------------8------|----10--------------------10---------------------------|
   -----------------------------------------------------------------|-------------------------------------------------------|


  *  Captain crash   and   the    beauty queen from mars  *
  |-----------------------------|-------------------------|
  |-----------------------------|-------------------------|
  |--10---------------------10--|--12---------------------|
  |--10---------------------10--|--12---------------------|
  |---8----------------------8--|--10---------------------|
  |-----------------------------|-------------------------|


verse 3 - same as verse 1 

chorus

....beauty queen from mars_____ 

  |--------------------------12-------------12-----|-12-------------12-----|-13--------------13\-|---8-7---8-7--------------|
  |-------------------------------13------------13-|------13------------13-|------13---------13\-|-------8-----8------------| 
  |------------------------------------12----------|-----------12----------|-----------12--------|--------------------------|
  |------------------------------------------------|-----------------------|---------------------|--------------------------|
  |------------------------------------------------|-----------------------|---------------------|--------------------------|
  |------------------------------------------------|-----------------------|---------------------|--------------------------|

bridge

s |-12-----------12----|-12-----------12----|-13-----------13-|--8-7---8-7--------|-12-----------12----|-12-----------12-----|
 o |-----13----------13-|-----13----------13-|-----13-------13-|------8-----8------|-----13----------13-|-----13----------13--|
 l | --------12---------|---------12---------|---------12------|-------------------|---------12---------|---------12----------|
 o |--------------------|--------------------|-----------------|-------------------|--------------------|---------------------|
   |--------------------|--------------------|-----------------|-------------------|--------------------|---------------------|
   |--------------------|--------------------|-----------------|-------------------|--------------------|---------------------|

   |-13-----------13----|-8-7---8-7--------------|
   |-----13--------13---|-----8-----8----6-5-----|
   |---------12---------|--------------------5---|
   |--------------------|------------------------|
   |--------------------|------------------------|
   |--------------------|------------------------|

Chorus

|------12-------------12-----|-12-------------12-----|-13--------------13\-|---8-7---8-7--------------|
  |-----------13------------13-|------13------------13-|------13---------13\-|-------8-----8------------| 
  |----------------12----------|-----------12----------|-----------12--------|--------------------------|
  |----------------------------|-----------------------|---------------------|--------------------------|
  |----------------------------|-----------------------|---------------------|--------------------------|
  |----------------------------|-----------------------|---------------------|--------------------------|


  |------12-------------12-----|-12-------------12-----|-13--------------13\-|---8-7---8-7----------------|
  |-----------13------------13-|------13------------13-|------13---------13\-|-------8-----8--------------| 
  |----------------12----------|-----------12----------|-----------12--------|--------------------10-9----|
  |----------------------------|-----------------------|---------------------|-------------------------10-|
  |----------------------------|-----------------------|---------------------|----------------------------|
  |----------------------------|-----------------------|---------------------|----------------------------|
Comments