Bon Jovi - Bounce Chords & Tabs

 

Bounce Chords & Tabs

Bon Jovi Chords & Tabs

Version: 3 Type: Tab 0 ratings
1 star 2 stars 3 stars 4 stars 5 stars
comments

Bounce Tab

   
Key:
v = sustain chord
 = slide picking hand towards 
    tuning knobs after playing chord.


Intro/ Main Riff: 
(Play with lots of flange,chorus, and wah)
e|-----------------------|---------------------|
B|-----------------------|---------------------|
G|-----------------------|---------------------|
D|-----------------------|--5-5-5-5-5-5-5-5----|
A|--6-6-6---5-5-5---6-6--|---------------------|
E|-----------------------|---------------------|


e|---------------------|-------------------|
B|---------------------|-------------------|
G|---------------------|-------------------|
D|---------------------|-------------------| > Play 2x
A|--5-5-5-5-5-5-5-5----|--3-3-3-3-3-3-3-3--|
E|---------------------|-------------------|



Verse Riff:
(w/ talk box)
e|-------------------|
B|-------------------|
G|--5---5--------5---|
D|--5---5--------5---|  > Play 3x
A|--3---3--------3---|
E|-------------------|


(Only Play 2nd Verse):
e|----------------|
B|----------------|
G|----------------|
D|---8vv----------|
A|---8vv----------|
E|---6vv----------|



[ Tab from: http://www.guitartabs.cc/tabs/b/bon_jovi/bounce_tab_ver_3.html ]
Pre-Chorus Riff:
e|------------------------|------------------------------|
B|------------------------|------------------------------|
G|------------------------|------------------------------|
D|---6vv------------------|---8vv------------------------|
A|---6vv------------------|---8vv------------------------|
E|---4vv------------------|---6vv------------------------|
     call it kharma...        me i just dont give a.....


Riff A:
(Palm Mute)
e|------------------|
B|------------------|
G|------------------|
D|--8---8---8---8---|
A|--8---8---8---8---|
E|--6---6---6---6---|
    f - f - f - f


Chorus:
(Guitar 1 has intro riff)
(Guitar 2 has following chords)
e|------------------------|------------------------|
B|------------------------|------------------------|
G|---5v----------8v-------|------------------------|
D|---5v----------8v-------|---8v---------6v--------| > Play 2x
A|---3v----------6v-------|---8v---------6v--------|
E|------------------------|---6v---------4v--------|



Bridge Riffs:
e|----8----8-8-----|----8----8-8-----|
B|----8----8-8-----|----8----8-8-----|
G|-----------------|-----------------|
D|-----------------|-----------------|
A|-----------------|-----------------|
E|-----------------|-----------------|


e|--------8-8----------8-8--|--------8-8----------8-8--|
B|--------8-8----------8-8--|--------8-8----------8-8--|
G|---5-5-------5-5--5-------|---5-5-------5-5--5-------|
D|---5-5-------5-5--3-------|---5-5-------5-5--5-------|
A|---3-3-------3-3--3-------|---3-3-------3-3--3-------|
E|--------------------------|--------------------------|

KaZz AsH
Comments