Bon Jovi - Born To Be My Baby Chords & Tabs

 

Born To Be My Baby Chords & Tabs

Bon Jovi Chords & Tabs

Version: 2 Type: Tab 0 ratings
1 star 2 stars 3 stars 4 stars 5 stars
comments

Born To Be My Baby Tab

Bon Jovi \"Born To Be My Baby\" Solo.
 Tabbed by Ross O'Keefe, welcometothegoodtimes@hotmail.com.
  
Bon Jovi \"Born To Be My Baby\"
Tabbed by Ross O'Keefe 



Solo:

E|--------------|-----------------------------------------|
B|--------------|-------12-13-15-15b-^-^r13-15b-15-13-----|
G|--14b16p12----|--12-14-------------------------------14-|
D|-----------14-|-----------------------------------------|
A|--------------|-----------------------------------------|
E|--------------|-----------------------------------------|

E|----------------------|----------------------------------------------------------------|
B|----------------------|--12h13p12--------12h13p12------12h13p12------12h13p12----------|
G|--------------12------|-----------14p12----------14p12---------14p12----------14p12vv--|
D|--------12/14---------|----------------------------------------------------------------|
A|--14/15---------------|----------------------------------------------------------------|
E|----------------------|----------------------------------------------------------------|
[ Tab from: http://www.guitartabs.cc/tabs/b/bon_jovi/born_to_be_my_baby_tab_ver_2.html ]
E|------20v-19-17-19br17----|----------------------20p17------20p17-----20p17------20p17------|
B|-----------------------20-|---20p17--20p17-20p17------20p17------20p17-----20p17------20p17-|
G|--------------------------|-----------------------------------------------------------------|
D|--------------------------|-----------------------------------------------------------------|
A|--------------------------|-----------------------------------------------------------------|
E|--------------------------|-----------------------------------------------------------------|

E|-------------------20bvvr20-|
B|----------------------------|
G|---19br19--19br19-----------|
D|----------------------------|
A|----------------------------|
E|----------------------------|

Verse Riff:( Could be in the wrong key )


E|-----------------------------------------|
B|-----------------------------------------|
G|-----------------------------------------|
D|---------------------------------10p9----|  (Reapeat throughout Verse)
A|--12---10-12----10-12----10-12--------12-|
E|-----12------12-------12-----------------|

Thanks

Ross 
:: Ultimate Guitar Archive :: 
http://www.ultimate-guitar.com 



Comments