Bon Jovi - Blaze Of Glory Chords & Tabs

 

Blaze Of Glory Chords & Tabs

Bon Jovi Chords & Tabs

Version: 3 Type: Tab 0 ratings
1 star 2 stars 3 stars 4 stars 5 stars
comments

Blaze Of Glory Tab

   
This part is played with accompaniement by rhythm.

If you want a learning partner, give me an INSTANT MESSAGE on YM. My Yahoo ID is icefox_u2orig.


RHYTHM:
Play G5 and D5 three times....
               G5                                    D5
||---------------------------------|---------------------------------------
||---------------------------------|---------------------------------------
||---------------------------------|---------------------------------------
||--5------------------------------|--7------------------------------------
||--5------------------------------|--7------------------------------------
||--3------------------------------|--5------------------------------------


|---------------------------------|---------------------------------------
|---------------------------------|---------------------------------------
|---------------------------------|---------------------------------------
|---3-----------------------------|---------------------------------0h3-0-
|---3-----------------------------|---5--5--5--5--5--5-----------0h3------
|---1-----------------------------|---3--3--3--3--3--3--------------------


[ Tab from: http://www.guitartabs.cc/tabs/b/bon_jovi/blaze_of_glory_tab_ver_3.html ]
LEAD GUITAR:
|-15b-15b------------------------------------------------------|
|---------12p10------------------------------------------------|
|--------------12p10----14\12-----------10h11-10h11------------|
|-------------------12--------12-10-12---------------12--------|
|--------------------------------------------------------------|
|--------------------------------------------------------------|


|--------------------------------------------------------------|
|-----------------0/10-----------------------------------------|
|-12/14--14\12--------10-12---10-------------------------------|
|-12/14--14\12-------------------------------------------------|
|--------------------------------12-10-0---0--0--0--0--0-10----|
|----------------------------------------10-10-10-10-10--------|


|------------------------------------------------------------------|
|---------------------------------------12h13-13p10-------9--------|
|--------------10-------10-12-10-12-----------------10h11--10------|
|-----------------10\9--------------11-----------------------12-12-|
|-0/10-0--10/12----------------------------------------------------|
|------------------------------------------------------------------|


|----------------------------------------12-13-14-15b----------------|
|-5/7---10------------------10-----10----12-13-14-15b----------------|
|------7----15-14-15-14\12--10---10----------------------------------|
|--------------------------------------------------------------------|
|--------------------------------------------------------------------|
|--------------------------------------------------------------------|


THIS IS FROM WHAT IVE HEARD FROM THE MUSIC.
IT TOOK ME A WEEK...... HOPE IT WONT TAKE U THAT LONG TO LEARN THIS OKS??
-RamStormrage
Comments