Bon Jovi - Bed Of Roses Chords & Tabs

 

Bed Of Roses Chords & Tabs

Bon Jovi Chords & Tabs

Version: 5 Type: Tab

Bed Of Roses Tab

Aguante  Bon jovi Aerosmith  y los Guns  y el mejor quitarrista del mundo es SLASH


Keyboard
[ Tab from: http://www.guitartabs.cc/tabs/b/bon_jovi/bed_of_roses_tab_ver_5.html ]
E --------------------------------------------------------------------------|
B --8--------8--------8--------8--------8--------8--------8--------8--------|
G ----10-------10-------10-------10-------10-------10-------10-------10-----|
D -------12-------12-------12-------12-------10-------10-------10-------10--|
A --------------------------------------------------------------------------|
E --------------------------------------------------------------------------|
              (no pick)=*
E ---12-(b)13-12*--10-------------------10-12-(b)13-12*--10-----------------|
B --x--------------------10^13^10------x------------------13(b)15--10^13----|
G -x----------------------------------x-------------------------------------|
D --------------------------------------------------------------------------|
A --------------------------------------------------------------------------|
E --------------------------------------------------------------------------|


E ---10--12-(b)13-12*-10-----------10-----10-12-(b)13-12*-10-----------------|
B --x-------------------13(b)15--13--10--x-----------------13(b)15-13*-10^13-|
G -x------------------------------------x------------------------------------|
D ---------------------------------------------------------------------------|
A ---------------------------------------------------------------------------|
E ---------------------------------------------------------------------------|