Bon Jovi - Bed Of Roses Chords & Tabs

 

Bed Of Roses Chords & Tabs

Bon Jovi Chords & Tabs

Version: 4 Type: Tab 0 ratings
1 star 2 stars 3 stars 4 stars 5 stars
comments

Bed Of Roses Tab

Author/Artist: Bon Jovi
Title: Bed of roses
Transcribed by: Peter Holmgren
Email: kenneth.holmgren@telia.com
Listen to the song to hear how long each note is.
E-mail me if you have any comments.

Intro


-13-12------------------------13-12------------------------------------------
-x-----15----13------------13-------15-15b16---r15p13----13------------------
-x--------14----14---12-14----------------------------14---------------------
-----------------------------------------------------------------------------
-----------------------------------------------------------------------------
-----------------------------------------------------------------------------


----------13-12------------------------------13-12---------------------------
-------13-------15-15b16----13------------13-------15-15b16---r15p13----13---
-12-14-------------------14----14---12-14----------------------------14------
-----------------------------------------------------------------------------
-----------------------------------------------------------------------------
-----------------------------------------------------------------------------

Verse

---------------------1-----------0-----1-----0--------------------|
-------0h1---------3---3-----------1-----3-----1---------3h4------|
-----2-----2-----2-------2-----2-----2-----2-----2-----3-----3----|
---2---------2-0-------------2-----------------------3---------3--|
-0-------------------------0-----------------------1-------------1|
------------------------------------------------------------------|

[1.		       ][2.	       ]

-------------------------1---|---------------------|
-------3-----------5-----1---|---------------------|
-----3---3-------5---5---1---|-3---5---------------|
---3-------3---5-------5-3---|-3---5---3-------2---|
-1-----------3-----------3---|-1---3---3-------2---|
-------------------------1---|---------1---3-1-0---|

[3.		           ] Verse 4
p.m..
---------------------------------|-----------------------|
---------------------------------|-----------------------|
-3-3-3-3-3---3---5---------------|-7---5---3-------------|
-3-3-3-3-3---3---5---3-------2---|-7---5---3---3-----2---|
-1-1-1-1-1---1---3---3-------2---|-5---3---1---3-----2---|
---------------------1---3-1-0---|-------------1-3-1-0---|



Fill 1		  Fill 2		     Fill 3
Bend and release with trem bar on fill 1
[ Tab from: http://www.guitartabs.cc/tabs/b/bon_jovi/bed_of_roses_tab_ver_4.html ]
-14b15r14--------------|-15b17r15---13-15------|-10-13-10--------------------
-13b14r13---15r14b15---|------------------13---|-x--------13-10--------------
------------14r13b14---|-----------------------|-x--------------12-10-12-----
-----------------------|-----------------------|------------------------10/12
-----------------------|-----------------------|-----------------------------
-----------------------|-----------------------|-----------------------------

Fill 4		      Fill 5

-------13---12-------------|----------13-15b17-15b17r15p13-15-------
-----------------15---13---|----13-15-------------------------------
-14-12---------------------|-14-------------------------------------
---------------------------|----------------------------------------
---------------------------|----------------------------------------
---------------------------|----------------------------------------

Chorus

-----------------------------------------------------------------------------
-----------------------------------------------------------------------------
-7---5---3--------------------7---9---12---10-----------7---5---7---5---7----
-7---5---3---3---x-x----------7---9---12---10-----------7---5---7---5---7----
-5---3---1---3---x-x----------5---7---10---8----3-5-----5---3---5---3---5----
-------------1---x-x-3brb-1-------------------------1------------------------

	 Stick

-----------|-----------------------------------------------------|
-----------|-----------------------------------------------------|
-9---7-----|---------7-7-10-10-10-10-10-10-3-3-3-3---5-----------|
-9---7---3-|-----2---7-7-10-10-10-10-10-10-3-3-3-3---5---3-----2-|
-7---5---3-|-----2---5-5-8--8--8--8--8--8--1-1-1-1---3---3-----2-|
---------1-|-3-1-0---------------------------------------1-3-1-0-|

Solo
             AH  AH with wide vibrato
----------------------------------------------------------15b16-13-----------
----------------------------------------15p13----15-15-13--------------------
----------------------------------------------14-----------------------------
-----------3-5b7-5b7----3-5--------------------------------------------------
-5p3-5---5------------------3---3-5------------------------------------------
------------------------------------3h5--------------------------------------


-12---------------------------------13----13-15b17-15b17-15p13-17b18r17-17---
----15p13-15-------------12-15---15----15------------------------------------
-------------14p12-12h14-----------------------------------------------------
-----------------------------------------------------------------------------
-----------------------------------------------------------------------------
-----------------------------------------------------------------------------


-13-15---------------------------13-12/13-13---|
-------13-13-15---------------13---------------|
----------------12h14---12-14------------------|
-----------------------------------------------|
-----------------------------------------------|
-----------------------------------------------|
Comments