Bon Jovi - Bed Of Roses Chords & Tabs

 

Bed Of Roses Chords & Tabs

Bon Jovi Chords & Tabs

Version: 3 Type: Tab 0 ratings
1 star 2 stars 3 stars 4 stars 5 stars
comments

Bed Of Roses Tab

   
Any comments or questions can be send to "eraser49@hotmail.com"

b = bend
 = Flasholetti (an overture)
10/13 = slide

e|-----------------------------------------------------------------------|
B|-------------------------------------------------13(b)15-13-10-13(b)15-|
G|-----------------------------------------------------------------------|
D|----------3-5-5(b)7---5-----3^5---------------------------------------|
A|-5-3-5~---------------------------3~--3^5------------------------------|
E|---------------------------------------------5~------------------------|
[ Tab from: http://www.guitartabs.cc/tabs/b/bon_jovi/bed_of_roses_tab_ver_3.html ]
e|----------------13(b)15--13~-----------------10------------------------|
B|-13(b)15--13-----------------------------10----13-10-13b(15)-----------|
G|--------------------------------12(b)14--------------------------------|
D|-----------------------------------------------------------------------|
A|-----------------------------------------------------------------------|
E|-----------------------------------------------------------------------|

e|-------------13-------15(b)17--15--13-16(b)18--16(b)18-----------------|
B|------10/13----13------------------------------------------------------|
G|-----------------------------------------------------------------------|
D|-----------------------------------------------------------------------|
A|-----------------------------------------------------------------------|
E|-----------------------------------------------------------------------|
                                                Rake
e|--13^15-----------------------10--12--13~-12~-13-----------------------|
B|---------13~--13^15---------10-----------------------------------------|
G|-----------------------14~----10---------------------------------------|
D|-------------------------------12--------------------------------------|
A|-----------------------------------------------------------------------|
E|-----------------------------------------------------------------------|

Comments