Bon Jovi - All About Lovin' You Chords & Tabs

 

All About Lovin' You Chords & Tabs

Bon Jovi Chords & Tabs

Version: 1 Type: Tab 0 ratings
1 star 2 stars 3 stars 4 stars 5 stars
comments

All About Lovin' You Tab

   
this is the version of "all about lovin you" that i know. if you have 
any suggestions e mail me. bizkit0888
v= vibrato
s= slide down

intro

E|4v-----6v----9v---9---8s6-8s4v------------------------------------
B|----4-------------11-------------6v-4-----------------------------
G|------------------10----------------------------------------------
D|------------------------------------------------------------------
A|------------------------------------------------------------------
E|------------------------------------------------------------------

verse- it sounds closer with a capo on the first fret but this is the
version without it.
[ Tab from: http://www.guitartabs.cc/tabs/b/bon_jovi/all_about_lovin_you_tab.html ]
E|----3-----3------3------3------3------3------3------3-------------
B|-----3-----3------3------3------3------3------3------3------------
G|------------------------------------------------------------------
D|------------------------------------------------------------------
A|2-2----2-2----0-0----0-0----3-3----3-3----3-3----3-3--------------
E|3-3----3-3----2-2----2-2----1-1----1-1----0-0----0-0--------------


chorus- G- Bm- C- D= acoustic. electric= (after Bm) C(hold it)D(on 2nd,
then 3rd, then 5th and 6th)

solo

E|15-15-------15-15-------15----17-17-------17-17-------17----20--20-
B|------15-15-------15-15----15-------15-15-------15-15----15--------
G|-------------------------------------------------------------------
D|-------------------------------------------------------------------
A|-------------------------------------------------------------------
E|-------------------------------------------------------------------


19-17-19-17-15-------------------------------------------------------
------------------17-15----------------------------------------------
---------------------------------------------------------------------
---------------------------------------------------------------------
---------------------------------------------------------------------
---------------------------------------------------------------------


that is the whole song. have fun with it.
Comments